PrimaNota.ru - самый крупный в мире бесплатный архив песенных текстов, аккордов, табулатур и нот


Los Saicos - Cementerio - таба, видео

Регистрация Запомнить меня
Войти через:  Facebook Google Twitter Vk Yandex Mail.ru

Los Saicos - Cementerio - таба, видео

Печатать
Просмотров: 141
Уроки эстрадного вокала в Санкт-Петербурге
Los Saicos
1965

singer: Cesar Castrillon ( Bass )


Intro :

e |-------------------------------------|
b |-------------------------------------|
g |-------------------------------------|
D |-0--0--0-0---3-2-2-0-0---0-----------|
A |-----------------------4-------------|
E |-------------------------------------|

Dm  G  Dm  G  Dm  G  Dm

Dm          G                  Dm         G
EN EL CEMENTERIO ESTABA YO BUSCANDO UN ARCON
 Dm          G                    Dm
CUANDO VI FANTASMAS Y EN UN VIEJO NICHO ME ESCONDI

F             Dm
UNA CADENA SE ARRASTRO
F               Dm
UN ARCON SE ABRIO
F            Dm
Y DE EL UN MUERTO SALIO
Am               G          *
AHHHHHHHH   LA FIESTA COMENZO
G        *  G                    *
AHHHHHHHH   ERA UN CUADRO DE HORROR
G        *
AHHHHHHHH 

Dm             G                Dm          G
CUANDO EN UN CRANEO ROTO LA CERVEZA SE SIRVIO
     Dm         G            Dm           
CON LAPIDAS DE MESAS Y CON ATAUDES DE SILLON

SAICO¡

RIFF :

e |------------------5-8-7-5-|
b |-----6---6—-8-66----------|
g |---7---7------------------|
D |--------------------------|
A |--------------------------|
E |--------------------------|

e |------------------5-8/7-5-|
b |-----6---6—-8-66----------|
g |---7---7------------------|
D |--------------------------|
A |--------------------------|
E |--------------------------|


e |------------------5-8-7-5-|--------|
b |-----6---6—-8-66----------|------3-|
g |---7---7------------------|--7-----|
D |--------------------------|--------|
A |--------------------------|--------|
E |--------------------------|--------|


F             Dm
UNA CADENA SE ARRASTRO
F               Dm
UN ARCON SE ABRIO
F            Dm
Y DE EL UN MUERTO SALIO
Am               G          *
AHHHHHHHH   LA FIESTA COMENZO
G        *  G                    *
AHHHHHHHH   ERA UN CUADRO DE HORROR
G        *
AHHHHHHHH 

Dm             G                Dm          G
CUANDO EN UN CRANEO ROTO LA CERVEZA SE SIRVIO
     Dm         G            Dm           
CON LAPIDAS DE MESAS Y CON ATAUDES DE SILLON

SAICO¡

*

e |--8--------------------|
b |-----10-8--------------|
g |----------10—8---------|
D |----------------10—8---|
A |---------------------10|
E |-----------------------|
Добавлено: 19.04.2012
Другие материалы по этой песне:
  • Аккорды и текст

Страница создана 19.04.2012
http://primanota.ru/los-saicos/cementerio-chords.htm
Привет, Гость.
Предлагаем пройти революционный курс по гитаре.
Подарок от PrimaNota.Ru, забирай!