PrimaNota.ru - самый крупный в мире бесплатный архив песенных текстов, аккордов, табулатур и нот


Los Saicos - Besando A Otra - таба, видео

Регистрация Запомнить меня
Войти через:  Facebook Google Twitter Vk Yandex Mail.ru

Los Saicos - Besando A Otra - таба, видео

Печатать
Просмотров: 93
ARRIBA PERU ¡¡¡

BESANDO A OTRA
LOS SAICOS – 1966
ERWIN FLORES / ROLANDO CARPIO


INTERPRETE : ERWIN FLORES


INTRO:

   G               Em
                              REPETIR 3 VECES
e/-7-7-5-5-------------------/
b/---------8-8-7-7-5---5-7-5-/
g/-------------------7-------/
D/---------------------------/
A/---------------------------/
E/---------------------------/

                             WUAAAU ¡¡¡


   G              Em
BESANDO A OTRA MI CHICA ME VIO
   G              Em
( NO NO NO NO TE BESO MAS )
    G                Em
ME DIJO ADIOS NO TE BESO MAS
   G              Em
( NO NO NO NO TE BESO MAS )
    C                               D
CORRI TRAS DE ELLA Y TRATE DE EXPLICAR¡


    G            Em
LE DIJE VEN, QUE ESO FUE
   G              Em
( NO NO NO NO TE BESO MAS )
    G           Em
TAN SOLO UN PEQUEÑO ERROR
   G              Em
( NO NO NO NO TE BESO MAS )
    C                            D
ME DIJO : NO , NO TE QUIERO VER MAS


           G
NO TE VEO MAS ( NO NO NO NO )

ANDATE DE AQUÍ ( NO NO NO NO )

ME MENTISTE TU ( NO NO NO NO )

NO TE QUIERO VER ( NO NO NO NO )
D
NOOOO   OHHHHH OHHHHH   WUAAAU ¡¡¡


 G              Em
NO NO NO NO TE BESO MAS
 G              Em
NO NO NO NO TE BESO MAS
 G              Em
NO NO NO NO TE BESO MAS
 G              Em
NO NO NO NO TE BESO MAS


RIFF

   G               Em

e/-7-7-5-5---------------------/
b/---------8-8-7-7-5---7-5-----/
g/-------------------7---------/
D/-----------------------------/
A/-----------------------------/
E/-----------------------------/

   G               Em

e/-7-7-5-5-------------------/
b/---------8-8-7-7-5---5-7-5-/
g/-------------------7-------/
D/---------------------------/
A/---------------------------/
E/---------------------------/

   G         Em

e/-7--5----------------/
b/------8-7-5----5-7-5-/
g/-------------7-------/
D/---------------------/
A/---------------------/
E/---------------------/

G                  Em        C     D

e/-7-7-5-5-------------------/-8-----10-/
b/---------8-8-7-7-5---5-7-5-/-8-----10-/
g/-------------------7-------/-9-----11-/
D/---------------------------/-10----12-/
A/---------------------------/----------/
E/---------------------------/----------/

   G              Em
BESANDO AOTRA MI CHICA ME VIO
   G              Em
( NO NO NO NO TE BESO MAS )
    G                Em
ME DIJO ADIOS NO TE BESO MAS
   G              Em
( NO NO NO NO TE BESO MAS )
    C                               D
CORRI TRAS DE ELLA Y TARTE DE EXPLICAR¡


    G            Em
LE DIJE VEN, QUE ESO FUE
   G              Em
( NO NO NO NO TE BESO MAS )
    G           Em
TAN SOLO UN PEQUEÑO ERROR
   G              Em
( NO NO NO NO TE BESO MAS )
    C                            D
ME DIJO : NO , NO TE QUIERO VER MAS

G              Em
NO NO NO NO TE BESO MAS
 G              Em
NO NO NO NO TE BESO MAS
 G              Em
NO NO NO NO TE BESO MAS
 G              Em
NO NO NO NO TE BESO MAS
G              Em
NO NO NO NO TE BESO MAS
 G              Em
NO NO NO NO TE BESO MAS
 G              Em
NO NO NO NO TE BESO MAS
 G              Em
NO NO NO NO TE BESO MAS
G              Em
NO NO NO NO TE BESO MAS


FIN
Добавлено: 27.06.2012
Другие материалы по этой песне:
  • Аккорды и текст

Страница создана 27.06.2012
http://primanota.ru/los-saicos/besando-a-otra-chords.htm
Привет, Гость.
Предлагаем пройти революционный курс по гитаре.
Подарок от PrimaNota.Ru, забирай!