PrimaNota.ru - самый крупный в мире бесплатный архив песенных текстов, аккордов, табулатур и нот


Los Prisioneros - Maldito Sudaca - таба, видео

Регистрация Запомнить меня
Войти через:  Facebook Google Twitter Vk Yandex Mail.ru

Los Prisioneros - Maldito Sudaca - таба, видео

Печатать
Просмотров: 92
INTRO : LA






MALDITO SUDACA MALDITO LATINO
   A                C
INMUNDO CHILENO PERUANO ARGENTINO

1)
MALDITO SUDACA MALDITO LATINO
INMUNDO CHILENO PERUANO ARGENTINO

2)
    D                     E 
NO PONGAS TUS MANOS EN MI CAR
    D                     E   
NO PONGAS TUS DEDOS EN MI CAR







    A        C       A         C        A
e-------------------------------------------------|
b-------------------------------------------------|
g----------5-5-5-5-----------5-5-5-5--------------|
d-7-7-7-7--5-5-5-5--7-7-7-7--5-5-5-5--7-7-7-7-----|
a-7-7-7-7--3-3-3-3--7-7-7-7--3-3-3-3--7-7-7-7-----|
e-5-5-5-5-----------5-5-5-5-----------5-5-5-5-----|

     C         B
e-----------------------------------------|
b-----------------------------------------|
g-5-5-5-5--4-4-4-4-4-4-4-4----------------|
d-5-5-5-5--4-4-4-4-4-4-4-4----------------|
a-3-3-3-3--2-2-2-2-2-2-2-2----------------|
e-----------------------------------------|

coro:
la la la...

     A       C       D         E                 D
e-------------------------------------|    e----------|
b-------------------------------------|    b----------|
g----------5-5-5-5--7-7-7-7--9-9-9-9--| X2 g-7-7-7-7--|
d-7-7-7-7--5-5-5-5--7-7-7-7--9-9-9-9--|    d-7-7-7-7--|
a-7-7-7-7--3-3-3-3--5-5-5-5--7-7-7-7--|    a-5-5-5-5--|
e-5-5-5-5-----------------------------|    e----------|






PARTE FINAL DE LA CANCION (EN VIVO ESTADIO NACIONAL)


/ = Deslizar el dedo hasta el espacio que te pide, ej: 8/10 desde 
el espacio 8 deslizas el dedo hasta el espacio 10
(12) = Nota Fantasma, si quieres la tocas, en realidad es como para 
complementar un poco...

....Eta Eta Eta Eta One, tWO, Three, Four...:
6|---------------------------------------------------|
5|----------------------------------13-15-13-13-12---|
4|-12-12-12-9--12-12-12-9--12-12-12------------------|
3|---------------------------------------------------|
2|---------------------------------------------------|
1|---------------------------------------------------|

6|---------------------------------------------------|
5|-12-13-15-15-15-13-13-12--12-13-(12)---------------|
4|------------------------------------14/12-9--------|
3|---------------------------------------------------|
2|---------------------------------------------------|
1|---------------------------------------------------|

6|---------------------------------------------------|
5|----------------------------------13-15-13-13-12---|
4|-12-12-12-9--12-12-12-9--12-12-12------------------|
3|---------------------------------------------------|
2|---------------------------------------------------|
1|---------------------------------------------------|

6|---------------------------------------------------|
5|-12-13-15-15-15-13-13-12-12-10---------------------|
4|-------------------------------12-12-14-16-17------|
3|---------------------------------------------------|
2|---------------------------------------------------|
1|---------------------------------------------------|

6|---------------------------------------------------|
5|-7-8-10-10-10-7-----8/10-10-10---------------------|
4|----------------9-7--------------------------------|
3|---------------------------------------------------|
2|---------------------------------------------------|
1|---------------------------------------------------|

6|---------------------------------------------------|
5|-5-7/8-8-8-5-----7/8-8-8---------------------------|
4|-------------7-5-----------------------------------|
3|---------------------------------------------------|
2|---------------------------------------------------|
1|---------------------------------------------------|

--> Aca en el final toca la cuerda moviendo el dedo Indice de arriba hacia abajo
6|-8-10-8-7-10-5--7-7-8-10-8-7-10-5---8--8-8-8-8-----| 
5|--------------8-------------------8----------------|
4|---------------------------------------------------|
3|---------------------------------------------------|
2|---------------------------------------------------|
1|---------------------------------------------------|


Добавлено: 22.07.2012
Другие материалы по этой песне:
  • Аккорды и текст

Страница создана 22.07.2012
http://primanota.ru/los-prisioneros/maldito-sudaca-chords.htm
Привет, Гость.
Предлагаем пройти революционный курс по гитаре.
Подарок от PrimaNota.Ru, забирай!