PrimaNota.ru - самый крупный в мире бесплатный архив песенных текстов, аккордов, табулатур и нот


Los Muertos De Cristo - Obreros Somos - таба, видео

Регистрация Запомнить меня
Войти через:  Facebook Google Twitter Vk Yandex Mail.ru

Los Muertos De Cristo - Obreros Somos - таба, видео

Печатать
Просмотров: 36
MODIFICACION A LA TRANSCRIPCION DE:
raymundo (rayskapunk@


aki va el puro punteo solo
e|----2323---5-55-----------------
b|---3----------------32----------
g|--2--------------2--------------
d|--------------------------------
a|--------------------------------
e|--------------------------------

aki entra la segunda guit con la distor
e|----2323---5-55-----------------
b|---3----------------32----------
g|--2--------------2--------------
d|--------------------------------
a|--------------------------------
e|-------------------------------- x3

e|----2323---5-55-5--3232---------
b|---3----------------------323---
g|--2-----------------------------
d|--------------------------------
a|--------------------------------
e|--------------------------------

esta es la segunda guitarra
e|--------------------------------------
b|--------------------------------------
g|-----7-7----11-11----12-1212--77------
d|---00505--009-09---001001010--55------
a|--------------------------------------
e|--------------------------------------

aki entra el bajo

a|--55555--99999--1010101010-----55555--
e|--------------------------------------x4
obreros somos obreros seremos alos patrones por kulosdaremos


obreros somos obreros seremos alos facistas los akabaremos

d|-----7----1112------------------------
a|-----5----9-10------------------------
e|--------------------------------------

asi va toda esta parte

obreros somos obreros seremos alos patrones por kulosdaremos


obreros somos obreros seremos alos facistas los akabaremos


oye los gritos de kien los pare son los obreros kesalen alakalle

despierta el pueblo aike lushuar para akabar konlña injusticia

[ch]Aboral[/ch]


benga estudiante o jornalero albañil profesor o karpintero

keinporta todos somos obrero0s  y todos juntos al estado akabaremos


obreros somos obreros seremos alos patrones por kulosdaremos


obreros somos obreros seremos alos facistas los akabaremos (X2)

AKI VA UN SOLO KE NO E PODIDO SAKAR


apoyo mutuo esa es la clave ser solidarios todos somos iguales

viva galicia o andalucia el que es mas duro el cataluñoy el cheverria

obreros somos obreros seremos alos patrones por kulosdaremos


obreros somos obreros seremos alos facistas los akabaremos (X2)


[ch]G            [ch]E                    [ch]D        MI[/ch]          RE[/ch]       SOL[/ch]
HIJOS DEL PUEBLO SE OPRIMA EN KADENAS Y LA INJUSTICIA SE APORARA DE TI

[ch]E                   [ch]B[/ch]                           LA[/ch]
SI TU VIVIR EN UN MUNDO DE PENAS ANTES KE ESKLAVO PREFIERO MORIR
[ch]G          [ch]E                [ch]D        MI[/ch]          RE[/ch]       SOL[/ch]
ESOS BURGUESES RICOS Y EGOISTAS QUE DISCRIMINAN LA HUMANIDAD
[ch]E                [ch]B[/ch]                     LA[/ch]
SERAN BARRIDOS POR LOS ANARQUISTAS AL FUERTE GRITO DE LIBERTAD

esto lleva un riff
y la segunda guit es con palmut

trabajador no mas sufrir la explotacion debe sucumbir
levantate pueblo leal al ritmo de revolucion social
la acracia al fin triunfarábello jardin la tierra será
todo lo vi a eliminar pueblo tenaz luchar, luchar


sss ya casi esta lista ojala y les sirva
chido pura bufita punk rock
Добавлено: 24.03.2016
Другие материалы по этой песне:
  • Аккорды и текст

Страница создана 24.03.2016
http://primanota.ru/los-muertos-de-cristo/obreros-somos-chords.htm
Привет, Гость.
Предлагаем пройти революционный курс по гитаре.
Подарок от PrimaNota.Ru, забирай!