PrimaNota.ru - самый крупный в мире бесплатный архив песенных текстов, аккордов, табулатур и нот


Los Muertos De Cristo - Gloria Al Señor - таба, видео

Регистрация Запомнить меня
Войти через:  Facebook Google Twitter Vk Yandex Mail.ru

Los Muertos De Cristo - Gloria Al Señor - таба, видео

Печатать
Просмотров: 29
intro
------12121212101010108888888812121212
12121212131313131515151513131313121212121313131315151515

ya huele a semana santa, como rosario de la aurora


llega la primavera y asar anuncia una vez mas que

jesucristo muerto....


x2
------------------------------------------------------------------------
------------------------------------------------------------------------
-5----9_10_9-------9_10_9------9_10_9----10--10--10--10---9--9--9--9----
-5----9_10_9--5 ---9_10_9--7---9_10_9----10--10--10--10---9--9--9--9----
-3----7_ 8_7--5----7_8 _8--7---7_8 _7----8---8---8---8----7--7--7--7----
--------------3------------5--------------------------------------------


cuando empieza a cantar es asi


---------------------------------------------------
---------------------------------------------------
--5------------------------------------------------
--5---5---7---5------------------------------------
--3---5---5---5------------------------------------
------3---5---3------------------------------------


despues del bajo es asi
esto es cuando dice
aleluya aleluya...

----------------------------------------------------
----------------------------------------------------
5---------------------------------------------------
5----5-----7----5-----------------------------------
3x4--5-----5----5-----------------------------------
-----3x4---5x4--3x4---------------------------------


el dinero no escogio

punteo que acompaña
----------------------------------------------------
----------------------------------------------------
7-7-9-10-9-10/12-10-9-9-10--------------------------
----------------------------------------------------
----------------------------------------------------
----------------------------------------------------
la guitarra acompaña en do osea


---------------------------------
---------------------------------
-5-------------------------------
-5-------------------------------
-3-------------------------------
---------------------------------


y acaba en sol
esto es antes de que empieze a cantar de nuevo


---------------------------------
---------------------------------
---------------------------------
-5-5----------5-5----------------
-5-5----------5-5----------------
-3-3----------3-3----------------


aveces ya la lleva demostrando humildad....

----------------------------------------------------
----------------------------------------------------
5---------------------------------------------------
5----5-----7----5-----------------------------------
3x4--5-----5----5-----------------------------------
-----3x4---5x4--3x4---------------------------------


coro

----------------------------------------------------
----------------------------------------------------
5---------------------------------------------------
5----5-----7----5-----------------------------------
3x4--5-----5----5-----------------------------------
-----3x4---5x4--3x4---------------------------------

punteo

   [ch]E[/ch]----------------------------------------------------
   si------------10---8_7----7/8/7---9/10/9-8-6-8-6-8-14-
  [ch]G[/ch]-7-7-9-10-9-----------------------------------------

    [ch]E[/ch]------------------------------------
    [ch]B[/ch]--------------------------------------
   sol-7-----9-10-7-----9-10-9---9-10---12-10-9--9/10/9-7-5-----------

    [ch]E[/ch]------------------------------------
    [ch]B[/ch]--------------------------------------
   sol-7-----9-10-7-----9-10-9---9-10---12-10-9--9/10/9-7-5--9

    [ch]E[/ch]------------------------------------
    [ch]B[/ch]--------------------------------------
   sol-9-----7-9-12-10/9-7-----5-4-5-9--5-4------2--2-7-5--5-9-7-5-7-4-5---

aca empieza a cantar pero sigue el punteo

 [ch]E[/ch]------------------------------------
    [ch]B[/ch]--------------------------------------
   sol-9-----7-9-12-10/9-7-----5-4-5-9--5-4------2--2-7-5--5-9-7-5-7-4-5---

 [ch]E[/ch]------------------------------------
    [ch]B[/ch]--------------------------------------
   sol-9-----7-9-12-10/9-7-----5-4-5-9--5-4------2--2-7-5--5-9-7-5-7-4-5---


coro


----------------------------------------------------
----------------------------------------------------
5---------------------------------------------------
5----5-----7----5-----------------------------------
3x4--5-----5----5-----------------------------------
-----3x4---5x4--3x4---------------------------------


termina con este punteito


---------------------------------------------
---------------------------------------------
-7---7-9-12--10/9---7------------------------
---------------------------------------------
---------------------------------------------
---------------------------------------------


espero que les guste... desde bogota jose abelardo diaz
Добавлено: 24.03.2016
Другие материалы по этой песне:
  • Аккорды и текст

Страница создана 24.03.2016
http://primanota.ru/los-muertos-de-cristo/gloria-al-senor-chords.htm
Привет, Гость.
Предлагаем пройти революционный курс по гитаре.
Подарок от PrimaNota.Ru, забирай!