PrimaNota.ru - самый крупный в мире бесплатный архив песенных текстов, аккордов, табулатур и нот


Los Mox - Un Beso Y Una Flor - таба, видео

Регистрация Запомнить меня
Войти через:  Facebook Google Twitter Vk Yandex Mail.ru

Los Mox - Un Beso Y Una Flor - таба, видео

Печатать
Просмотров: 84
        ------Un Beso Y Una Flor------
 -------Los Mox (cover de nino bravo)-------
         ---------Japiaguer----------

Nota: si eres principiante, rasguea arriba-abajo, toca con la canción de fondo ;)


Tab:

Intro

e|-----------------------------------------------------------------------|
B|-----------------------------------------------------------------------|
G|------------6-7-9-7-6--------------------------------------------------|
D|------7--7-------------7--7-------------------7-9-11-9-7---------------|
A|---------------------------------7--7---9--9---------------9--9---7--7-|
E|-----------------------------------------------------------------------| X2



1ª Estrofa:

"Dejare mi tierra por ti..."  
 
e|------------------------------------------------------|
B|------------------------------------------------------|
G|--222222222222222222----------------------------------|
D|--222222222222222222---------(44444444444444)-----2222|
A|--000000000000000000---------(44444444444444)-X2--2222|
E|-----------------------------(22222222222222)-----0000|



2ª Estrofa:

"De día viviré..."
    
e|----------------------|
B|----------------------|
G|--77777777------------|
D|--77777777--77777777--|
A|--55555555--77777777--|
E|------------55555555--| X4


Pre-Coro:

"Me voy pero te juro, que mañana volveré..."
     
e|--------------------------------------------------------------------------|
B|--------------------------------------------------------------------------|
G|---7--7·--6--6·--4--4·--2--2·-(4)-----\999999999999999999/X---------------|
D|---7--7·--6--6·--4--4·--2--2·-(4)-----\999999999999999999/X------2-22-2--2|
A|---5--5·--4--4·--2--2·--0--0·-(2)-----\777777777777777777/X------2-22-2--2|
E|-----------------------------------------------------------------0-00-0--0|
                                                                 PM· ·· ·

Coro:

"Al partir, un beso y una flor..."

e|---------------------------------------------|
B|---------------------------------------------|
G|--22222222-----------------------------------|
D|--22222222--22222222--444444444444444--2222--|
A|--00000000--22222222--444444444444444--2222--|
E|------------00000000--222222222222222--0000--|

"Un te quiero, una caricia y un adiós..."

e|----------------------------------------|
B|----------------------------------------|
G|--77777777------------9999999999999999--|
D|--77777777--77777777--9999999999999999--|
A|--55555555--77777777--7777777777777777--|
E|------------55555555--------------------|

"Es ligero equipaje, para tan largo viaje..."

e|-----------------------------------------|
B|-----------------------------------------|
G|--77777777------------77777777--99999999-|
D|--77777777--77777777--77777777--99999999-|
A|--55555555--77777777--55555555--77777777-|
E|------------55555555---------------------|

"Las penas pesan en el corazón.."

e|-----------------------------------------|
B|-----------------------------------------|
G|------------77777777---------------------|
D|--77777777--77777777--9----9----9----9-9-|
A|--77777777--55555555--7----7----7----7-7-|
E|--55555555-------------0000-0000-0000----|
                       PM···· ···· ····

"mas allá, del mar habrá un lugar..."

e|---------------------------------------------|
B|---------------------------------------------|
G|--22222222-----------------------------------|
D|--22222222--22222222--444444444444444--2222--|
A|--00000000--22222222--444444444444444--2222--|
E|------------00000000--222222222222222--0000--|

"donde el sol cada mañana brille más..."

e|----------------------------------------|
B|----------------------------------------|
G|--77777777------------9999999999999999--|
D|--77777777--77777777--9999999999999999--|
A|--55555555--77777777--7777777777777777--|
E|------------55555555--------------------|

"Forjarán mi destino, la piedras del camino..."

e|-----------------------------------------|
B|-----------------------------------------|
G|--77777777------------77777777--99999999-|
D|--77777777--77777777--77777777--99999999-|
A|--55555555--77777777--55555555--77777777-|
E|------------55555555---------------------|

"Lo que nos es querido, siempre queda..."

e|-----------------------------------------|
B|-----------------------------------------|
G|------------77777777--99999999-----------|
D|--77777777--77777777--99999999-----------|
A|--77777777--55555555--77777777-----------|
E|--55555555-------------------------------|

INTRO otra vez

Se repiten los Riff desde la primera estrofa hasta el coro y termina.

Leyenda:
PM ··· = Palm Mute (si no sabes, no se que haces tocando guitarra...)
\      = Slide UP (desliza los dedos en dirección al cuerpo de la guitarra)
/      = Slide Down (desliza los dedos en dirección al clavijero de la guitarra)

Por Reynaldo Figueroa
si tienes preguntas e-mail: thrash.metal_death95@hotmail.com
Добавлено: 30.07.2012
Другие материалы по этой песне:
  • Аккорды и текст

Страница создана 30.07.2012
http://primanota.ru/los-mox/un-beso-y-una-flor-chords.htm
Привет, Гость.
Предлагаем пройти революционный курс по гитаре.
Подарок от PrimaNota.Ru, забирай!