PrimaNota.ru - самый крупный в мире бесплатный архив песенных текстов, аккордов, табулатур и нот


Los Lonely Boys - Tell Me Why - текст песни, таба, бас-таба, видео

Регистрация Запомнить меня
Войти через:  Facebook Google Twitter Vk Yandex Mail.ru

Los Lonely Boys - Tell Me Why - текст песни, таба, бас-таба, видео

Печатать
Просмотров: 195
-------------------------------------------------------------------------------
                             Tell Me Why - Los Lonely Boys - SOLO
-------------------------------------------------------------------------------
Tabbed by:   handlerb

Tuning: Eb Ab Db Gb Bb Eb
Key:            Cb Major (play like C Major when tuned down)
Tone:   Single coil in the bridge position.  “Hot” and grimy sound from tube screamer type 
and of course a wah pedal.

Please take the time to rate it, any suggestions are welcome!


Main Solo

1:23
e|---------------------------------------------------------------------------|
B|------8---10--10\----------------------------8---10~--\--------------------|
G|---------------------------------------/9----------------------------------|
D|---------------------------------------------------------------------------|
A|---------------------------------------------------------------------------|
E|---------------------------------------------------------------------------|

1:27
e|-----------5-----5--7--5h7p5------5-----------------5----------------------|
B|--------5-----8----------------8-----8---5-------5-----8p5-----------------|
G|----7b9--------------------------------------7b9-------------7b9r7p5-------|
D|---------------------------------------------------------------------7--7~-|
A|---------------------------------------------------------------------------|
E|---------------------------------------------------------------------------|

1:31
e|---5p0---8p0----5p0---8p0----5p0---8p0----5p0---8p0----5p0---8p0----3s5----|
B|---------------------------------------------------------------------------|
G|---------------------------------------------------------------------------|
D|---------------------------------------------------------------------------|
A|---------------------------------------------------------------------------|
E|---------------------------------------------------------------------------|

1:35
e|---8b10--8---5h7p5--------5----------------5-------------------------------|
B|---------------------8-------8p5--------5-----8----5-----------------------|
G|-----------------------------------7b9------------------7b9r7p5------------|
D|------------------------------------------------------------------7--------|
A|---------------------------------------------------------------------------|
E|---------------------------------------------------------------------------|

1:39
e|---------5-----5-------------------------8--------10b12--(12)--(12)--(12)--|
B|-------5----8---------8s10-10-10---8-10------------------------------------|
G|---7b9---------------------------------------------------------------------|
D|---------------------------------------------------------------------------|
A|---------------------------------------------------------------------------|
E|---------------------------------------------------------------------------|

1:43
e|---(12)---(12)---(12)--------10b12v--12v--12v--11.5v---11v---10.5v---10v---|
B|---------------------------------------------------------------------------|
G|---------------------------------------------------------------------------|
D|-------------------------------return bend slowly, heavy vibrato-----------|
A|---------------------------------------------------------------------------|
E|---------------------------------------------------------------------------|

1:47
e|------------------|
B|------------------|
G|------------------|
D|---------------7--| x2
A|-----------7------|
E|--5----8----------|

1:51
e|------------------|
B|------------------|
G|---------------9--|
D|------6----9------| x2
A|--7---------------|
E|------------------|

1:56
e|------------------|
B|------------------|
G|---------------7--|
D|-----------7------| x1
A|--5----8----------|
E|------------------|

1:58
e|------------------|
B|------------------|
G|------------------|
D|---------------10-| x1
A|-----------10-----|
E|--8----7----------|

2:00
e|---------------------------------------------------------------------------|
B|---------------------------------------------------------------------------|
G|------------7-------------7-------7--4-----7--4-----7--4-----7--4----------|
D|---6----9--------6----9-----------------6--------6--------6--------6--7s0--|
A|---------------------------------------------------------------------------|
E|---------------------------------------------------------------------------|


| /  slide up
| \  slide down
| s  slide to specific fret
| h  hammer-on
| p  pull-off
| v  vibrato
| +  harmonic
| x  Mute note
Добавлено: 18.06.2012
Другие материалы по этой песне:
  • Аккорды и текст

Страница создана 01.04.2012
http://primanota.ru/los-lonely-boys/tell-me-why-chords.htm
Привет, Гость.
Предлагаем пройти революционный курс по гитаре.
Подарок от PrimaNota.Ru, забирай!