PrimaNota.ru - самый крупный в мире бесплатный архив песенных текстов, аккордов, табулатур и нот


Los Lonely Boys - Suppertime - текст песни, таба, видео

Регистрация Запомнить меня
Войти через:  Facebook Google Twitter Vk Yandex Mail.ru

Los Lonely Boys - Suppertime - текст песни, таба, видео

Печатать
Просмотров: 90


|-----------------15---------14-------|
|-----15------------------------------|
|---------14--12------14-----------14-|
|%-12--------------------------------%|
|-------------------------------------|
|-------------------------------------|

|------------------15--------14-------|
|------15-----------------------------|
|---------14--12--------14---------14-|
|%-14--------------------------------%|
|-------------------------------------|
|-------------------------------------|
_______________________________________
end of Riff A

|----------------------15----------14--------|
|---------15---------------------------------|
|-----12-------14--12--------14-----------14-|
|%------------------------------------------%|
|--------------------------------------------|
|--------------------------------------------|

Добавлено: 18.11.2013
Другие материалы по этой песне:
  • Аккорды и текст

Страница создана 21.03.2012
http://primanota.ru/los-lonely-boys/suppertime-chords.htm
Привет, Гость.
Предлагаем пройти революционный курс по гитаре.
Подарок от PrimaNota.Ru, забирай!