PrimaNota.ru - самый крупный в мире бесплатный архив песенных текстов, аккордов, табулатур и нот


Los Lonely Boys - Onda - таба, видео

Регистрация Запомнить меня
Войти через:  Facebook Google Twitter Vk Yandex Mail.ru

Los Lonely Boys - Onda - таба, видео

Печатать
Просмотров: 126
Los Lonely Boys
Onda
tabbed by nb

here is yet another great LLB song, i got a request for this one, listen my email
isno longer homeostasis6428@yahoo.com, it is now shadow_priest2007@yahoo.com, thanks

LISTEN TO CD FOR TIMING!

b=bend
r=release to original pitch
h=hammer-on
p=pull-off                         NOTE: all bends are full bends unless
/=slide up                               otherwise noted.
=slide down
x=mute note
~~-vibrato
p.m= palm mute

tune 1/2 step down
low to high Eb-Ab-Db-Gb-Bb-Eb

gtr. 1 dist. w/multitap reverb

e------------------------------------------9----9h10p9----9---------|
b------------------------------------10-12---12--------12---10-12---|
g---6-7-9-9-9p7----6-7-9-9-9-7-9-/11--------------------------------|
d-9--------------9--------------------------------------------------|
a-------------------------------------------------------------------|
e-------------------------------------------------------------------|

e--------------------------------------7-----9-10-12-10-9h10p9----9----|
b----10---7-----------------7--7-7-b10---b10-------------------12------|
g-11----9---b9r9p7hb9r9p7b9--------------------------------------------|
d----------------------------------------------------------------------|
a----------------------------------------------------------------------|
e----------------------------------------------------------------------|

e-----------------------------7-----------------------------------------|
b-10-12----10---7-----------7---10p7------------------------------------|
g-------11----9---b9r9p7hb9----------b9r9p76--7p6h7/9/1197p6-6~~--------|
d-----------------------------------------------------------------------|
a-----------------------------------------------------------------------|
e-----------------------------------------------------------------------|

e---------------------------------------0---------------------------|
b---------------------------------------0---------------------------|
g--------------------------------6-6--6-0----6-7-9-9-9-9-9-7-9-b9---|
d-7h9//11~~----9p7h9--9--9-9-8-9--------0--9------------------------|
a-------------------------------------------------------------------|
e-------------------------------------------------------------------|

e-7---------9-10-9h10p9----9-10-12-10-9h10p9-9-10------b12r12p10----|
b---7-10/12-------------12---------------------------x--------------|
g--------------------------------------------------x----------------|
d-------------------------------------------------------------------|
a-------------------------------------------------------------------|
e-------------------------------------------------------------------|

e-b12r12p10-b12r12p10-b12r12p10-b12--10h12-10-9-10-9h10p9h12-9--------|
b---------------------------------------------------------------10-12-|
g---------------------------------------------------------------------|
d---------------------------------------------------------------------|
a---------------------------------------------------------------------|
e---------------------------------------------------------------------|

e-----------------------------------7---------------------------------|
b----10---10--------------------------7--10p7-------------------------|
g-11----9----b9r9p7-b9r9p7--------------------b9r9p76--7p6--7-9/11----|
d---------------------------9p7-------------------------0-------------|
a-------------------------------9-------------------------------------|
e---------------------------------------------------------------------|

e-------------------7--7--7------------7------7-9-10p9p7-------------|
b-------------------------------7--------7-10------------10p7--------|
g-------------------7--9-b9r9p7---9-b9------------------------b9r9p7-|
d-7h9-7h9--9-9p7--9--------------------------------------------------|
a--------------------------------------------------------------------|
e--------------------------------------------------------------------|

e------------------------------------------7-9-10---------------------|
b--------------------------------------7----------7~~~----------------|
g-9/119p7h9p76-----------------------x--------------------b9r9--------|
d-----------------9--8h9p8--8------x--------------------0-------------|
a-------------------------------------------------------0-------------|
e-------------------------------------------------------0-------------|

e--------------------------------9-10-12-b12r12-10-12-10h12p109-10----|
b-----------------------------12--------------------------------------|
g-7h9p76~~--7h9-9~~---9p7--x------------------------------------------|
d---------------------------------------------------------------------|
a---------------------------------------------------------------------|
e---------------------------------------------------------------------|

                              1/2
e-9h10p97-9-7h9p7-----------------------------------------------------|
b------------------10p7-10p7------------------------------------------|
g----------------------------b9r9-b9--7-9---------------7-9/11--7-----|
d-----------------------------------------7h9-7h9~~---9---------------|
a---------------------------------------------------------------------|
e---------------------------------------------------------------------|

e----------------------------------------------------------------------|
b----------------------------------------------------------------------|
g-7h9p7h9p7h9p7h9p7h9p7h9p7h9p7h9p7h9p7h9p7h9p7h97h9p7h9p7h9p7h9--b9r9-|
d----------------------------------------------------------------------|
a----------------------------------------------------------------------|
e----------------------------------------------------------------------|
                                                 p.m.....  p.m.........
e-----7-7-7-7-------------------------------------------------------------|
b-----7-7-7-7-------------------------------------------------------------|
g-7---7-7-7-7----------7-9/11--7-7h9~~--b99r9--7--------------------------|
d---9---------9-9~~--9------------------------------------4-------------4-|
a---------------------------------------------------------5-------------5-|
e-------------------------------------------------7-7-7-7---7-5-7-7-7-7---|
 p.m.........   p.m........  p.m.........  p.m.........  p.m.........
e-----------------------------------------------------------------------|
b-----------------------------------------------------------------------|
g-----------------------------------------------------------------------|
d-------------4-------------4-------------4-------------4-------------4-|
a-------------5-------------5-------------5-------------5-------------5-|
e-7-5-7-7-7-7---7-5-7-7-7-7---7-5-7-7-7-7---7-5-7-7-7-7---7-5-7-7-7-7---|
 p.m.........                   p.m.....  p.m.........  p.m.........
e-----------------------------------------------------------------------|
b-----------------------------------------------------------------------|
g-----------------------------------------------------------------------|
d-------------4-x----------7-6-----------4-------------4-------------4--|
a-------------5-x----5-7/9-----7---------5-------------5-------------5--|
e-7-5-7-7-x-x---x-/7-------------7-7-7-7---7-5-7-7-7-7---7-5-7-7-7-7----|
 p.m.........                   p.m.....  p.m.........  p.m.........
e-----------------------------------------------------------------------|
b-----------------------------------------------------------------------|
g-----------------------------------------------------------------------|
d-------------4------------7-6-----------4-------------4-------------4--|
a-------------5-0----5-7/9-----7---------5-------------5-------------5--|
e-7-5-7-7-7-7---0-/7-------------7-7-7-7---7-5-7-7-7-7---7-5-7-7-7-7----|
  p.m........
e-----------------------------------------------------------------------|
b-----------------------------------------------------------------------|
g-----------------------------------------------------------------------|
d-------------4-----------7-6------------7-6------------7-6-------------|
a-------------5-0---5-7/9-----7----5-7/9-----7----5-7/9-----7-------5---|
e-7-5-7-7-7-7---0-7--------------7--------------7--------------0--7-----|

e-----------------------------7-------7-7-7-7-7-7--7--------------------|
b-----------------------------7-------7-7-7-7-7-7--7--------------------|
g-----------------------------7-------7-7-7-7-7-7--7--------------------|
d-----7-6-------------7-6-----6--------------------6--------------------|
a-7/9-----7----5--7/9------0--7--7-----------------7--------------------|
e---------0--7-------------0-----0-----------------0--------------------|

                              On-da                   si-em-bra en mi

e------------------------------------------------------------------------|
b------------------------------------------------------------------------|
g------------------------------------------------------------------------|
d---------------7--6--------------------7--6------------------7--6-------|
a-----5---5-7/9-------7------5--5--7/9--------7----5--5--7/9-------0-0-0-|
e-7-----------------------7----------------------7-----------------0-0-0-|
 vi - da

e-7-------------------7------------------------------------x-x-x------0--|
b-7-------------------7------------------------------/14--x-x-x----0-0---|
g-7----------7--7--7--7------------------------------/14-----------0-0---|
d-6----------6--6--6------------------------------------------------0-0--|
a-7----------7--7--7------------------0-----------------------------0-0--|
e-0----------0--0--0------------------0--7-----/14---------------0-------|
 On - da                 si-em-bra en mi vi - da

e-b12r12-10-9-10-9----9-------------------------------------------------|
b------------------12---10-12----10---7------------------------7-0-0----|
g-----------------------------11----9---b9-9-r9p7-b9-9-r9-7-b9---0-0----|
d----------------------------------------------------------------0-0----|
a-----------------------------------------------------------------------|
e-----------------------------------------------------------------------|

e----9-10-9-10-9h10p9----9----------------------------------------------|
b-12------------------12---10-12----10---7---7---7---7---7------------0-|
g--------------------------------11----9---9---9---9---9---10p9p7---6-7-|
d-----------------------------------------------------------------------|
a-----------------------------------------------------------------------|
e-----------------------------------------------------------------------|

e------------0-0-0-0-0-0-0-0----9-10p9-10p9----9-10p9-10p9----9-10p9-10p9-|
b------------0-0-0-0-0-0-0-0-12-------------12-------------12-------------|
g-6----------0-0-0-0-0-0-0-0----------------------------------------------|
d---9-9--9-9-9-9-9-9-0-0-0-0----------------------------------------------|
a-------------------------------------------------------------------------|
e-------------------------------------------------------------------------|

e----9-10p9-10p9----9-10p9-10p9----9-10p9-12p9h10/15-(15)-/x-x----0--0-----|
b-12-------------12-------------12-------------------------/x-x----0--0----|
g--------------------------------------------------------------x----0--0---|
d--------------------------------------------------------------x----0--0---|
a--------------------------------------------------------------x-x-0--0----|
e----------------------------------------------------------------x-0--0----|

e-b10holdbendr10-9~~--10-9-7------------0----7-7----------9-10p9-10p9------|
b----------------------------10-7-------0----7-7-10/12-12-------------12---|
g---------------------------------7~~---0-b9-------------------------------|
d--------------------------------------------------------------------------|
a--------------------------------------------------------------------------|
e--------------------------------------------------------------------------|

e-9-10-12-10-9----9------------------------------------7-----7-------------|
b--------------12---10-12----10---7----7----7----7-b10---b10---10-(b10)----|
g-------------------------11----9---b9---b9---b9---------------------------|
d--------------------------------------------------------------------------|
a--------------------------------------------------------------------------|
e--------------------------------------------------------------------------|

e-------0--0--------------------------------------------x-x-x----9-10p9--|
b-(10)~-0--0----------------10-10-10-10-10-10-10~-10-10-x-x-x-12---------|
g-------9-b9r9-7-9-7---/11--11-11-11-11-11-11-11~-11-11-x-x-x------------|
d--------------------9---------------------------------------------------|
a------------------------------------------------------------------------|
e------------------------------------------------------------------------|

e----9--------------------------0-0-0---------------0-0-0-0---------------|
b-12---10-12----10---7----------0-0-0-----10--10-10-0-0-0-0-7-------------|
g------------11----9---b9r9p7-9-0-0-0-/11-11--11-11-0-0-0-0-7h9p7---------|
d-------------------------------0-0-0-----------------------------9-7h9~~-|
a-------------------------------------------------------------------------|
e-------------------------------------------------------------------------|

e-7-7--7--7-7-7-7--7-7--------------9-10----9----------------12/14-12-10-|
b-----------------------------10-12------12---10/12-12-12p10-------------|
g-7-9-b9--9-9-9-9--9-9-7-9/11--------------------------------------------|
d------------------------------------------------------------------------|
a------------------------------------------------------------------------|
e------------------------------------------------------------------------|

e-9--10-9-10----9---------------------------------------------------------|
b------------12---10-12----10---7-----------------------------------------|
g-----------------------11----9---b9-9-7-6-7-9--76-7---6p7-6--7-9---7-----|
d-----------------------------------------------------9-------------x-----|
a------------------------------------------------------------------x------|
e-------------------------------------------------------------------------|

e----7--------------------------9h10-9-12-9-10----9-------7---7------7---|
b------7-10-7-------------10/12----------------12---10-12---7---b10---10-|
g-b9----------b9r9-7-9/11------------------------------------------------|
d------------------------------------------------------------------------|
a------------------------------------------------------------------------|
e------------------------------------------------------------------------|

e----------------0-------------------------0--------------0-------------|
b-7--------------0-----10---10-10-10---10--0-10/12-12--12-0--0-b17-b15--|
g---10-b9r9-7-9--0-/11-11---11-11-11---11--0--------------0--0----------|
d------------------------------------------0-----------------0----------|
a-----------------------------------------------------------------------|
e-----------------------------------------------------------------------|


e---------------------------------x-12----------------------------------|
b-b17-pb15.5holdbendandbendup11/2------15-14-15-14--15-14-12--12--12----|
g-----------------------------------------------------------------------|
d-----------------------------------------------------------------------|
a-----------------------------------------------------------------------|
e-----------------------------------------------------------------------|

e-------------12--------------------------------/14----------------------|
b----12-14-15----15-b17r17b17r17b17r17b17-(17)---------------------------|
g-15---------------------------------------------------------------------|
d--------------------------------------------------------------7-6-------|
a--------------------------------------------------------5-7/9------7----|
e-----------------------------------------------------/7-----------------|

e------------------------------------------------------------------------|
b------------------------------------------------------------------------|
g----------------------7h9-9p7-----------7h9-7h9p7--0--------------------|
d---------7-6------6-9-9-------9----6-9-9----------0------------7-7-6----|
a---5-7/9-----7/7----------------/7----------------0----5-5-7/9----------|
e-7---------------------------------------------------/7-----------------|

e-----------------------------------------------------------------------|
b-----------------------------------------------------------------------|
g----------------------------------------7h9-7h9p7-----------7h9-7h9p7--|
d-6---------------------7-6-6------6-6-6-9---9--------6--6-9-9---9------|
a---7-7-------5-5-5-9-9---------/7------------------7-------------------|
e-------7-7-7-----------------0-----------------------------------------|

e-----------------------------------------------------------------------|
b-----------------------------------------------------------------------|
g-0---------------------------------------------------------------------|
d-0---------7-7-7-6-6-6---------------------7-7-7-6-6----------6-6-6-9--|
a-0---5-7/9-------------7-7-------5-5-7/9-9-----------7-7--7-7----------|
e---7-----------------------7-7-7---------------------0-0--0------------|

e---------------------------------------------|    check back daily because
b-------------0-------------------------0-----|    i add a portion a day
g---7h9-7h9p7-0-------------9/11-9h11p9-0-----|    due to the length of this
d-9-9---9-----0-6-6-6-6-9-9-------------0-----|    song. thanks, ENJOY!
a---------------7-----------------------------|
e---------------------------------------------|
Добавлено: 28.06.2012
Другие материалы по этой песне:
  • Аккорды и текст

Страница создана 28.06.2012
http://primanota.ru/los-lonely-boys/onda-chords.htm
Привет, Гость.
Предлагаем пройти революционный курс по гитаре.
Подарок от PrimaNota.Ru, забирай!