PrimaNota.ru - самый крупный в мире бесплатный архив песенных текстов, аккордов, табулатур и нот


Los Lobos - The Valley - аккорды и текст, видео

Регистрация Запомнить меня
Войти через:  Facebook Google Twitter Vk Yandex Mail.ru

Los Lobos - The Valley - аккорды и текст, видео

Печатать
Просмотров: 135
The Valley
Los Lobos
-------------------------------------------------------------------------------
                          Los Lobos-The Valley
-------------------------------------------------------------------------------
Tabbed by:Nick V.
E-mail:BlindTerry333@gmail.com

David Hidalgo's solo version.

Tuning:EADGBE


Verse [Fig #1]

e|--------------------------------------------------------------------------|
B|-1-1-1-1-1---1-1-1-1-1---1---1-----1----------1---------------------------|
G|-0-0-0-0-0---0-0-0-0-0---0---0-----0----0h2---0---------------------------|
D|-2-2-2-2-2---0-0-0-0-0---0---0h2---2h3--------2---------------------------|
A|-3-3-3-3-3---3-3-3-3-3---3---3-----3----------3---------------------------|
E|--------------------------------------------------------------------------|

Verse [Fig. #1]

C                              Cadd2/E
In ancient times to a place so far away
C                              Cadd2/E
Across the land where the earth was as tough as clay
C                               Cadd2/E
Looked at their hands, looked all around
C                               Cadd/E
And they seemed pleased at what they had found


Chorus:

Am
Here in the valley, bread on the table
F7M  
Work through day hard for as long as we are able
Am
Green is the valley, blue is the night
 F7M                    Gsus4no5
Out of the darkness and into the light


Verse {Fig. #1]

C                              Cadd2/E
They could've gone but instead they chose to stay
C                              Cadd2/E
To watch the clouds way up high as they turned to gray
C                              Cadd2/E
Then through the dark, broke a crimson sun
C                              Cadd2/E
And at that moment, knew their lives had just begun


Bridge:

C Dadd4 Emno5 Dadd4 Emno5 [x3]


Verse [Fig. #1]


Chorus:

Am
Here in the valley, bread on the table
F7M  
Work through day hard for as long as we are able
Am
Green is the valley, blue is the night
              F7M                 Gsus4no5
Out of the darkness, into the light


Chorus:

Am
Here in the valley, bread on the table
F7M  
Work through day hard for as long as we are able
Am
Green is the valley, blue is the night
              F7M                 Gsus4no5
Out of the darkness, into the light


  Cadd2/E  Fsus2/C  Dadd9   Gsus4no5  Emno5
e|----------0--------0-------3--------0----------------------------------------|
B|--1-------1--------3-------1--------5----------------------------------------|
G|--0-------0--------0-------0--------0----------------------------------------|
D|--0-------3--------4-------0--------4----------------------------------------|
A|--3-------3--------5-------0-------------------------------------------------|
E|-------------------3-------3-------------------------------------------------|
   


Questions, comments, insults...BlindTerry333


Добавлено: 04.12.2015
Другие материалы по этой песне:
  • Аккорды и текст

Страница создана 04.10.2014
http://primanota.ru/los-lobos/valley-chords.htm
Привет, Гость.
Предлагаем пройти революционный курс по гитаре.
Подарок от PrimaNota.Ru, забирай!