PrimaNota.ru - самый крупный в мире бесплатный архив песенных текстов, аккордов, табулатур и нот


Los Kung-fu Monkeys - Short Fuse - таба, видео

Регистрация Запомнить меня
Войти через:  Facebook Google Twitter Vk Yandex Mail.ru

Los Kung-fu Monkeys - Short Fuse - таба, видео

Печатать
Просмотров: 84
Short Fuse - Los Kung Fu Monkeys
Tabbed By: Slappy McLardfat (P Dizzle)
Standard Tuning

I also tabbed most of the other instruments' parts

Intro
Guitars 1 and 2 - Distorted, Palm Muted
e|-----------------------------------------|
B|-----------------------------------------|
G|-----------------------------------------|                               
D|---7-7-----5-7777-----5--7-7---5--333-555|
A|---5-5--7--3-5555-7-7-3--5-5-7-3--111-333|
E|--------5---------5-5--------5-----------| x4

On 2nd time

Trumpets etc. Play palm muted.
e|------------------------------------------------|
B|------------------------------------------------|
G|------------------------------------------------|
D|------77-55--------55-77-----77-55---8--7--5--7-|
A|---55------88-77-88-------55-------88-----------|
E|------------------------------------------------| x2

Verse
Guitar 2
e|x7x7x7x7x7x7x7x7x7x7x7x7----------|
B|x7x7x7x7x7x7x7x7x7x7x7x7----------|
G|x7x7x7x7x7x7x7x7x7x7x7x7-3333-5555|
D|x7x7x7x7x7x7x7x7x7x7x7x7-3333-5555|
A|x5x5x5x5x5x5x5x5x5x5x5x5-1111-3333|
E|----------------------------------|

Trumpets etc.
e|-------------------|
B|-------------------|
G|--7--5-7----7--10-7|
D|--x--x-x----x--x--x|
A|--5--3-5----5--8--5|
E|-------------------|

Slower Part
Guitars 1 and 2  f i r s t  t i m e       s e c o n d   t i m e 
e|-------------|--------------------|xx77xx77xx77xx77xx77xx77xx77xx77-|
B|-------------|--------------------|xx77xx77xx77xx77xx77xx77xx77xx77-|
G|2~~-3~~-5~~--|--777x5-777x5-777x5-|xx77xx77xx77xx77xx77xx77xx77xx77-|
D|2~~-3~~-5~~--|--xxxxx-xxxxx-xxxxx-|xx77xx77xx77xx77xx77xx77xx77xx77-|
A|0~~-1~~-3~~--|--555x3-555x3-555x3-|xx55xx55xx55xx55xx55xx55xx55xx55-|
E|-------------|--------------------|xx--xx--xx--xx--xx--xx--xx--xx---|
                x2
e|-----------------------|----------------------------------------|
B|-----------------------|----------------------------------------|
G|-77x77x77x77x777-------|77-5-77-5-77-5-77-5-7--/1010101010101010|
D|-xxxxxxxxxxxxxxx--3~-5~|xx-x-xx-x-xx-x-xx-x-x--/xxxxxxxxxxxxxxxx|
A|-55x55x55x55x555--3~-5~|55-3-55-3-55-3-55-3-5--/8888888888888888|
E|------------------1~-3~|----------------------------------------|

Trumpets etc. (somewhere in there)

A|--0~---5-7-8-7-5--3~---7-8-10-8-7|

Breakdown

Guitars 1 and 2 
Part 1          2x           Part 2 then Part 1 again             
e|--------------------------|--------------------|
B|--------------------------|--------------------|
G|77777777/10101010/12121212|-7777777--10-12-10--|
D|77777777/10101010/12121212|-7777777--10-12-1010|
A|55555555/8-8-8-8-/10101010|-55555555--8-10-8-10|
E|--------------------------|------------------8-|

the rest is in the tab somewhere.
check out the rest of their stuff @ http://www.myspace.com/loskfm  
Добавлено: 30.04.2012
Вам также может быть интересно:
Другие материалы по этой песне:
  • Аккорды и текст

Страница создана 30.04.2012
http://primanota.ru/los-kung-fu-monkeys/short-fuse-chords.htm
Привет, Гость.
Предлагаем пройти революционный курс по гитаре.
Подарок от PrimaNota.Ru, забирай!