PrimaNota.ru - самый крупный в мире бесплатный архив песенных текстов, аккордов, табулатур и нот


Los Kung-fu Monkeys - Lobo Hombre En Paris - таба, видео

Регистрация Запомнить меня
Войти через:  Facebook Google Twitter Vk Yandex Mail.ru

Los Kung-fu Monkeys - Lobo Hombre En Paris - таба, видео

Печатать
Просмотров: 106
Уроки эстрадного вокала в Санкт-Петербурге
Los Kung-fu Monkeys – Lobo Hombre En Paris
Lobo Hombre En Paris EP
Tab by: Elias Marin
Dudas y comentarios: eliasstaticx@hotmail.com

INTRO BAJO
e- --------------------------------------------|
B----------------------------------------------|
G----------------------------------------------|
D----------------------------------------------|
A-----------------------4-4-0-4-4-0-4-4-0-4-4--|
E-5-5-0-5-5-0-5-5-0-5-5------------------------|


VERSO
e- ----------------------------------------|
B------------------------------------------|
G----------6pm-------------------------6---|
D-7pm—-----6pm-(X2)—antes del precoro--6---|
A-7pm-(X2)-4pm-------------------------4---|
E-5pm--------------------------------------|


PRECORO
e- ----------------------|
B------------------------|
G-4------6------4---10-9-|
D-4—-----6-(X8)-4---10-9-|
A-2-(X8)-4------2---8--7-|
E------------------------|

CORO
e- -------------------------|
B---------------------------|
G--------6------------------|
D-7—-----6-(X2)-------------|
A-7-(X2)-4------------------|
E-5-------------------------|


Solo
e- ---------------------------------------|
B-----5-3-3-2-2-0-2----2-3-2-0-2----------|
G--------------------------------2---2----|
D----------------------------------2------|
A-----------------------------------------|
E-----------------------------------------|

e-----------------------------------------|
B----------------7-5----------------------|
G----------6-7-9--------------------------|
D------7-9--------------------------------|
A--7-9------------------------------------|
E-----------------------------------------|


Letra
Verso
Cada noche llaman desde París
en el día en que todo ocurrió
Como un sueño de locos sin fin
La fortuna se ha reído de tí

Precoro
Sorprendido espiando
el lobo escapa aullando
y es mordido
por el mago del Siam
Coro
La luna llena sobre París
ha transformado en hombre a Denis
Verso
Rueda por los bares del bulevar
se ha alojado en un sucio hostal
Precoro
Mientras está cenando junto a él se ha sentado
una joven, con la que irá a contemplar
Coro
La luna llena sobre París
Algunos francos cobra Denis
Lobo-hombre en París
Su nombre es Denis
(solo)
Coro
El hombre lobo esta en Paris
Su nombre: Denis
La luna llena sobre París
ha transformado en hombre a Denis

Precoro
Mientras está cenando
junto a él se ha sentado
una joven con la que irá a contemplar
Coro
La luna llena sobre París
ha transformado en hombre a Denis
La luna llena sobre París (lobo hombre en paris)
El hombre lobo esta en Paris (lobo hombre en paris)
La luna llena sobre París (lobo hombre en paris)
El hombre lobo esta en Paris (lobo hombre en paris)
Добавлено: 11.04.2012
Другие материалы по этой песне:
  • Аккорды и текст

Страница создана 11.04.2012
http://primanota.ru/los-kung-fu-monkeys/lobo-hombre-en-paris-chords.htm
Привет, Гость.
Предлагаем пройти революционный курс по гитаре.
Подарок от PrimaNota.Ru, забирай!