PrimaNota.ru - самый крупный в мире бесплатный архив песенных текстов, аккордов, табулатур и нот


Los Hijos De Barrón - Sangre Por Sangre - таба, видео

Регистрация Запомнить меня
Войти через:  Facebook Google Twitter Vk Yandex Mail.ru

Los Hijos De Barrón - Sangre Por Sangre - таба, видео

Печатать
Просмотров: 89
Aqui esta este requinto de los hijos de Barron

e|-0-0-0--0-0-0-0-2-2--2-2-2-0-0--0-0-0-0----2-0-0--0-------|
B|-2-2-2--2-2-0-2-3-3--3-3-3-2-2--0-0-0-0--2-3-2-2--2-------|
G|-----------------------------------------2----------------|
D|----------------------------------------------------------|
A|----------------------------------------------------------|
E|----------------------------------------------------------|

Se repite eso pero caundo va:

e|-2-2-2-0-0------|
B|-3-3-3-2-2------|
G|----------------|
D|----------------|
A|----------------|
E|----------------|

En ves de Terminar con lo de arriba termina con:

e|-0-0-2-0-0------|
B|-0-2-3-2-0-2----|
G|-----------2----|
D|----------------|
A|----------------|
E|----------------|

Muchas gracias
Добавлено: 25.07.2015
Другие материалы по этой песне:
  • Аккорды и текст

Страница создана 25.07.2015
http://primanota.ru/los-hijos-de-barron/sangre-por-sangre-chords.htm
Привет, Гость.
Предлагаем пройти революционный курс по гитаре.
Подарок от PrimaNota.Ru, забирай!