PrimaNota.ru - самый крупный в мире бесплатный архив песенных текстов, аккордов, табулатур и нот


Los Hermanos - Cara Estranho - аккорды и текст, видео

Регистрация Запомнить меня
Войти через:  Facebook Google Twitter Vk Yandex Mail.ru

Los Hermanos - Cara Estranho - аккорды и текст, видео

Печатать
Просмотров: 67
Cara Estranho
Los Hermanos
(intro 2x) F#m C#7

F#m    C#7                   F#m         A#º
Olha só, que cara estranho que chegou,
           Bm          E
parece não achar lugar,
                     F#m        C#7
no corpo em que Deus lhe encarnou.
               F#m        C#7
Tropeça a cada quarteirão,
                 F#m     A#º
não mede a força que já tem,
                  Bm      E
exibe à frente um coração,
                F#m       C#7
que não divide com ninguém.

                   D#º     D
Tem tudo sempre às suas mãos,
                   A    A#º
mas leva a cruz um pouco além,
                  Bm        E
talhando feito um artesão,
               F#m          C#7
a imagem de um rapaz de bem.

F#m    C#7                   F#m         A#º
Olha ali, quem tá pedindo aprovação,
                  Bm      E
não sabe nem pra onde ir,
                         F#m      C#7
se alguém não aponta a direção.

               F#m         C#7
Periga nunca se encontrar,
                   F#m         A#º
será que ele vai perceber,
                Bm      E
que foge sempre do lugar,
               F#m          C#7
deixando o ódio se esconder.

                 D#º     D
Talvez se nunca mais tentar
             A    A#º
viver o cara da tv
                  Bm      E
que vence a briga sem suar
                F#m       C#7
e ganha aplausos sem querer.

( F#m  C#7 ) (3x)
( F#m  A#º )

D
Faz parte desse jogo,

Bb                  G
dizer ao mundo todo,
          Gº             Bm    (riff 1)
que só conhece o seu quinhão ruim.

(riff 1)

E|---------------------|
D|---------------------|
G|---------------------|
B|---------------------|
A|--0-2-4-5-4-2-0------|
E|---------------------|


Em
É simples desse jeito,
A#º
quando se encolhe o peito
D                         G           F#m
e finge não haver competição.
Em       A
É a solução
            Em           A            G
de quem não quer perder aquilo que já tem
           F#               Bm     F#
e fecha a mão pro que há de vir.
Bm   F#
Ia, ia ia

(ponte)
( Bm   F# ) (3x)
( Bm   D#º )
( Em A ) (3x)
( Bm   F# ) (4x) Bm


E|---------------------------------------------------------|
D|-------------------------------------------10-10b12r10---|
G|--9h12-9h11-9---------------9h12-9h11--------------------|
B|--------------9-12-11--9-7------------9-12---------------|
A|---------------------------------------------------------|
E|---------------------------------------------------------|



E|---------------------------------------------------------|
D|-----------------------------------10--------------------|
G|--9h12-9h11-9---------------9h12-9-------11------9-------|
B|--------------9-12-11--9-7-------------------------------|
A|---------------------------------------------------------|
E|---------------------------------------------------------|



E|---------------------------------------------------------|
B|---------10-------------------------10-------------------|
G|--9h12-9-------11-----9------9h12-9-------11-----9-------|
D|---------------------------------------------------------|
A|---------------------------------------------------------|
E|---------------------------------------------------------|



E|---------------------------------------------------------|
B|---------------------------------------------------------|
G|--9h11-9h11-9h11-9---------------------------------------|
D|-------------------9^^^^---------------------------------|
A|---------------------------------------------------------|
E|---------------------------------------------------------|


D
Faz parte desse jogo,
Bb                  G
dizer ao mundo todo,
          Gº             Bm    (riff 1)
que só conhece o seu quinhão ruim.

(riff 1)

E|---------------------|
D|---------------------|
G|---------------------|
B|---------------------|
A|--0-2-4-5-4-2-0------|
E|---------------------|


Em
É simples desse jeito,
A#º
quando se encolhe o peito
D                         G           F#m
e finge não haver competição.
Em       A
É a solução
            Em           A            G
de quem não quer perder aquilo que já tem
           F#               Bm     F#
e fecha a mão pro que há de vir.

(repete ponte)
(repete solo)

(ponte)
( Bm   F# ) (3x)
( Bm   D#º )
( Em A ) (3x)
( Bm   F# ) (4x) Bm
Добавлено: 29.11.2013
Другие материалы по этой песне:

Страница создана 21.02.2012
http://primanota.ru/los-hermanos/cara-estranho-chords.htm
Привет, Гость.
Предлагаем пройти революционный курс по гитаре.
Подарок от PrimaNota.Ru, забирай!