PrimaNota.ru - самый крупный в мире бесплатный архив песенных текстов, аккордов, табулатур и нот


Los Gardelitos - Volver En Tus Ojos Chacarera - таба, видео

Регистрация Запомнить меня
Войти через:  Facebook Google Twitter Vk Yandex Mail.ru

Los Gardelitos - Volver En Tus Ojos Chacarera - таба, видео

Печатать
Просмотров: 83
Уроки эстрадного вокала в Санкт-Петербурге
-------------------------------------------------------------------------------
			   VOLVERÉ EN TUS OJOS - GARDELITOS
-------------------------------------------------------------------------------
Tabbed by: Francisco
Email: panchote_14  at  hotmail  dot  com

Tuning: STANDARD (EADGBe)

INTRO TAB: (E5-F#5–F#5–E5–F#5–F#5–A5–A5-A5-F#5) x4

e--------------------------------------------|----|
B-7-9-10-9-7------------------10-9-7---------|----|
G------------9~-7~--7-6-7-6-7--------6~-6~/0-|-x2-|
D--------------------------------------------|----|
A--------------------------------------------|----|
E--------------------------------------------|----|

e------------------------------------------------------|
B----------------------------7-------------------------|
G-6-----------------------6b---6r----------------------|
D---9b-9br p7---7-7-9-7-9---------9-7-7----------------|
A-------------9----------------------------------------|
E------------------------------------------------------|

e-------------------------------------------------------|
B-7-9-10-9-7-----------------10-9-7----------7-9-10-9-7-|
G------------9~-7~-7-6-7-6-7--------6~-6~/0-------------|
D-------------------------------------------------------|
A-------------------------------------------------------|
E-------------------------------------------------------|

e-------------------------------------/9~-9~--7-8b-8b--|
B-10/12-10--10-9-10-9-10-10/12--10-12------------------|
G------------------------------------------------------|
D------------------------------------------------------|
A------------------------------------------------------|
E------------------------------------------------------|

e-7------------------------12br-9----------------------|
B---10-9-7--10-10-12-10-12--------12-10-10/------------|
G------------------------------------------------------|
D------------------------------------------------------|
A------------------------------------------------------|
E------------------------------------------------------|

e---------------------------------------------|----|
B---------------------------------------------|----|
G-/9-9-9-9-9-9-----------/9-9-9---------------|-X2-|
D--------------11p9-11p9--------11--9----9-11-|----|
A-------------------------------------12------|----|
E---------------------------------------------|----|

e-------------------------------------------------------|
B-/9-9-9-9-9-9/10-10-9-10-9-10—10/12-10-9-9-------------|
G-------------------------------------------11-11-11-11-|
D-------------------------------------------------------|
A-------------------------------------------------------|
E-------------------------------------------------------|

| /  slide up
| \  slide down
| h  hammer-on
| p  pull-off
| ~  vibrato
| +  harmonic
| x  Mute note
===============================================================================

F#m               Bm    E               A
El dia que yo me muera no quiero ir al cielo
F#m               Bm    E             A
quiero quedarme cerca para ser tu consuelo.

Bm              A               E           F#m
Y con tu boca fresca, mi negra volvere a cantarte.
Bm              A                E          F#m
Y con tus ojos negros, mi negra volvere a mirarte.

F#m               Bm     E                A
No dejare que la lluvia vuelva a mojar tu cara.
F#m                 Bm     E               A
Volvere siempre en sueños siempre sere tu dueño.

Bm              A               E           F#m
Y con tu boca fresca, mi negra volvere a cantarte.
Bm              A                E          F#m
Y con tus ojos negros, mi negra volvere a mirarte.

(E – A) X4
Larailaila...

(E – A – Bm – A – F#m) X2

(W/DELAY)

e------------------------------------------------------|
B------------------------------------2--2-5-5/7--7-7-7-|
G-------1-1-2-2-2—2p1----2-2-2-4-4-4-------------------|
D-2h4-4----------------4-------------------------------|
A------------------------------------------------------|
E------------------------------------------------------|

e-5-4------------5-4-----------------5-----------------|
B-----5---5-7--7-----7--5---5-7--7-7---7---------------|
G-------6-----------------6----------------------------|
D------------------------------------------------------|
A------------------------------------------------------|
E------------------------------------------------------|

e-9-9-9-7-9--5-5-5-5-5--9-9-9-7-5-----2-|-----|
B-9-9-9-7-9--5-5-5-5-5--9-9-9-7-5-5/2-2-|-----|
G---------------------------------------|-X2--|
D---------------------------------------|-----|
A---------------------------------------|-----|
E---------------------------------------|-----|

e-----------|
B-----------|
G-----------|
D-6/7/9/11--|
A-----------|
E-4/5/7/9---|

e----------------------------------------|----|--------|
B-7-9-10-9-7-----------------10-9-7------|----|--------|
G------------9~-7~-7-6-7-6-7--------6~-6~|-X2-|--------|
D----------------------------------------|----|--------|
A----------------------------------------|----|--------|
E----------------------------------------|----|--------|

e------------------------------------------------------|
B----------------------------7-------------------------|
G-6-----------------------6b---6r----------------------|
D---9b-9br p7---7-7-9-7-9---------9-7------------------|
A-------------9----------------------------------------|
E------------------------------------------------------|

Song repeats once more, and that's it :)


ORIGINAL TAB was published on LaCuerda.net.
I edited it since I couldn't read it with inverted strings.
Now I think this is way easier for everyone :)

EL TAB ORIGINAL se publicó en LaCuerda.net
Lo edité porque me costaba leerlo con las cuerdas invertidas.
Creo que así es mucho más facil para todos :)
Добавлено: 04.09.2013
Другие материалы по этой песне:
  • Аккорды и текст

Страница создана 04.09.2013
http://primanota.ru/los-gardelitos/volver-en-tus-ojos-chacarera-chords.htm
Привет, Гость.
Предлагаем пройти революционный курс по гитаре.
Подарок от PrimaNota.Ru, забирай!