PrimaNota.ru - самый крупный в мире бесплатный архив песенных текстов, аккордов, табулатур и нот


Los Fastidios - Ya Basta - текст песни, таба, видео

Регистрация Запомнить меня
Войти через:  Facebook Google Twitter Vk Yandex Mail.ru

Los Fastidios - Ya Basta - текст песни, таба, видео

Печатать
Просмотров: 189
Уроки эстрадного вокала в Санкт-Петербурге
---------------------------------------------------------------------------
Band: Los Fastidios
Song: Ya Basta
EP:   Ora Basta (KOB/Mad Butcher Records)

Tabbed by Andreas Karlsson (Apr 4, 2007)
---------------------------------------------------------------------------

A straightforward punk song based around a few power chord patterns.
The song is played with two guitars, but most of the time they are
just doubling each other. I have only transcribed the individual
parts when there's a significant difference between the two.

Intro/Bridge/Interlude etc.:

  A5  F#5  C#5  D5 E5 [x2]

Verse:

  A5(pm)   F#5(pm)    [x2]
  D5       E5         [x2]

Chorus:

  A5  F#5  C#5  D5 E5 [x2]
  D5  E5   A5   B5
  D5  E5

---------------------------------------------------------------------------
- Standard tuning
- 168 BPM
---------------------------------------------------------------------------

Notation Legend:

  (pm)   = palm mute
  (n.c.) = no chord
   b     = bend
   /     = slide up
   \     = slide down
   h     = hammer-on
   p     = pull-off
   x     = muted string
  (0)    = ghost note

---------------------------------------------------------------------------

INTRO:

    (n.c.)
  B|---------------------------------| L
  G|---------------7b9~~~~~~-7-5-----| E
  D|-----------------------------7-5-| A
  A|---------------------------------| D


     A5              F#5               C#5             D5      E5
  B|---------------------------------|---------------------------------| L
  G|---------------------------------|---------------------------------| E
  D|-7~~ hold ~~~~~~~~~~~~~~~~~~~~~~~|~~~~~~~~~~~~~~~~-----------------| A
  A|---------------------------------|---------------------------------| D

  e|---------------------------------|---------------------------------| R
  B|---------------------------------|---------------------------------| H
  G|---------------------------------|-6---6-6-6-6-6-6-7-7-7---9-9-9---| Y
  D|-7---7-7-7-7-7-7-4---4-4-4-4-4-4-|-6---6-6-6-6-6-6-7-7-7---9-9-9---| T
  A|-7---7-7-7-7-7-7-4---4-4-4-4-4-4-|-4---4-4-4-4-4-4-5-5-5---7-7-7---| H
  E|-5---5-5-5-5-5-5-2---2-2-2-2-2-2-|---------------------------------| M
                                                                    [x2]

VERSE:

     A5 A5(pm)                         F#5 F#5(pm)
  e|---------------------------------|---------------------------------|
  B|---------------------------------|---------------------------------|
  G|---------------------------------|---------------------------------|
  D|-7-------------------------------|-4-------------------------------|
  A|-7---7-7-7-7-7-7-7-7-5-5-7-7-7-7-|-4---4-4-4-4-4-4-4-4-2-2-4-4-4-4-|
  E|-5---5-5-5-5-5-5-5-5-5-5-5-5-5-5-|-2---2-2-2-2-2-2-2-2-2-2-2-2-2-2-|
      1. Minoranza emarginata   -   -   -  popolo da sempre oppresso
      2. Dalla belva è schiacciato  -   -  fatto a pezzi per il possesso


     D5                                E5 (slide from D#5)         D#5
  e|---------------------------------|---------------------------------|
  B|---------------------------------|---------------------------------|
  G|-7-7-7-7-7-7-7-7-7-7-7-7-7-7-7-7-|-8/9-9-9-8/9-9-9-8/9-9-9-9---8---|
  D|-7-7-7-7-7-7-7-7-7-7-7-7-7-7-7-7-|-8/9-9-9-8/9-9-9-8/9-9-9-9---8---|
  A|-5-5-5-5-5-5-5-5-5-5-5-5-5-5-5-5-|-6/7-7-7-6/7-7-7-6/7-7-7-7---6---|
  E|---------------------------------|---------------------------------|
         Senza voce per decenni
                    nei villaggi assediati

     D5                                E5
  e|---------------------------------|---------------------------------|
  B|---------------------------------|---------------------------------|
  G|-7-7-7-7-7-7-7-7-7-7-7-7-7-7-7-7-|-9-9-9-9-9-9-9-9-9-9-9-9-9-9-9-9-|
  D|-7-7-7-7-7-7-7-7-7-7-7-7-7-7-7-7-|-9-9-9-9-9-9-9-9-9-9-9-9-9-9-9-9-|
  A|-5-5-5-5-5-5-5-5-5-5-5-5-5-5-5-5-|-7-7-7-7-7-7-7-7-7-7-7-7-7-7-7-7-|
  E|---------------------------------|---------------------------------|
         Malgoverno assassino
                      contadini massacrati        (--- -- -- -- ----!)
 
CHORUS:

     A5              F#5               C#5             D5      E5
  e|---------------------------------|---------------------------------|
  B|---------------------------------|---------------------------------|
  G|---------------------------------|-6-6-6-6-6-6-6-6-7-7-7-7-9-9-9-9-|
  D|-7-7-7-7-7-7-7-7-4-4-4-4-4-4-4-4-|-6-6-6-6-6-6-6-6-7-7-7-7-9-9-9-9-|
  A|-7-7-7-7-7-7-7-7-4-4-4-4-4-4-4-4-|-4-4-4-4-4-4-4-4-5-5-5-5-7-7-7-7-|
  E|-5-5-5-5-5-5-5-5-2-2-2-2-2-2-2-2-|---------------------------------|
      1. Ya basta    -   ya basta     -    ya basta   -   (Ya  basta!)
      2. Ya basta    -   ya basta     -    ya basta


     D5              E5                A5              B5
  e|---------------------------------|---------------------------------|
  B|---------------------------------|---------------------------------|
  G|-7-7-7-7-7-7-7-7-9-9-9-9-9-9-9-9-|---------------------------------|
  D|-7-7-7-7-7-7-7-7-9-9-9-9-9-9-9-9-|-7-7-7-7-7-7-7-7-9-9-9-9-9-9-9-9-|
  A|-5-5-5-5-5-5-5-5-7-7-7-7-7-7-7-7-|-7-7-7-7-7-7-7-7-9-9-9-9-9-9-9-9-|
  E|---------------------------------|-5-5-5-5-5-5-5-5-7-7-7-7-7-7-7-7-|
       La dignità  - non si arrende    -   il popolo - si difende


     D5              E5 (n.c.)
  e|---------------------------------|
  B|---------------------------------|
  G|-7-7-7-7-7-7-7-7-9---------------|
  D|-7-7-7-7-7-7-7-7-9---------------|
  A|-5-5-5-5-5-5-5-5-7---------------|
  E|---------------------------------|
           La lucha  sigue - el pueblo -


BRIDGE:

     A5              F#5               C#5             D5(pm)  E5(pm)
  e|---------------------------------|---------------------------------|
  B|---------------------------------|---------------------------------| L
  G|-9-9-9-7---9-----6-6-6-4---6-----|---------------------7-------9---| E
  D|-7-7-7-7---7--(0)4-4-4-4---4--(0)|-6-6-6-6-6-6-6-6-----7-------9---| A
  A|---------------------------------|-4-4-4-4-4-4-4-4-5-5-----7-7-----| D
  E|---------------------------------|---------------------------------|

  e|---------------------------------|---------------------------------| R
  B|---------------------------------|---------------------------------| H
  G|---------------------------------|-6---6-6-6-6-6-6-7---7---9---9---| Y
  D|-7---7-7-7-7-7-7-4---4-4-4-4-4-4-|-6---6-6-6-6-6-6-7---7---9---9---| T
  A|-7---7-7-7-7-7-7-4---4-4-4-4-4-4-|-4---4-4-4-4-4-4-5---5---7---7---| H
  E|-5---5-5-5-5-5-5-2---2-2-2-2-2-2-|---------------------------------| M
   - Vive


     A5              F#5               C#5             D5      E5
  e|---------------------------------|---------------------------------|
  B|---------------------------------|---------------------------------| L
  G|-9-9-9-7---9-----6-6-6-4---6-----|---------------------------------| E
  D|-7-7-7-7---7--(0)4-4-4-4---4--(0)|---------------------------------| A
  A|---------------------------------|-4----\2-----------------2-------| D
  E|---------------------------------|-------------5---4h5p4-----------|

  e|---------------------------------|---------------------------------| R
  B|---------------------------------|---------------------------------| H
  G|---------------------------------|-6---6-6-6-6-6-6-7-------9-------| Y
  D|-7---7-7-7-7-7-7-4---4-4-4-4-4-4-|-6---6-6-6-6-6-6-7-------9-------| T
  A|-7---7-7-7-7-7-7-4---4-4-4-4-4-4-|-4---4-4-4-4-4-4-5-------7-------| H
  E|-5---5-5-5-5-5-5-2---2-2-2-2-2-2-|---------------------------------| M


VERSE:

     A5(pm)                           F#5(pm)
       Il governo venduto produce per voi  (Belve affamate!)
     A5(pm)
       L'arte del saccheggio la vostra cultura
     F#5(pm)
       Avete tolto l'aria in cambio di morte e miseria

     D5                                          E5
       Terra dissanguata dai vostri oleodotti gasdotti e ferrovie
     D5                                         E5
       Il sangue della gente abbonda nei vostri sporchi conti in banca


CHORUS:

     A5         F#5        C#5        D5   E5
       Ya basta   ya basta   ya basta  (Ya basta!)
     A5         F#5        C#5        D5   E5
       Ya basta   ya basta   ya basta

     D5           E5             A5          B5
       La dignità non si arrende - il popolo si difende
     D5         E5 (n.c.) 
       La lucha sigue - el pueblo -


BRIDGE:

     A5   F#5  C#5  D5 E5  (w/lead)
   - Vive
     A5   F#5  C#5  D5 E5  (w/lead)
                       El -

INTERLUDE:

     A5(pm)          F#5(pm)           C#5(pm)         D5(pm)  E5(pm)
  e|---------------------------------|---------------------------------|
  B|---------------------------------|---------------------------------|
  G|---------------------------------|---------------------------------|
  D|-7-------------------------------|-6-6-6-6-6-6-6-6-7-7-7-7-9-9-9-9-|
  A|-7-7-7-7-7-7-7-7-4-4-4-4-4-4-4-4-|-4-4-4-4-4-4-4-4-5-5-5-5-7-7-7-7-|
  E|-5-5-5-5-5-5-5-5-2-2-2-2-2-2-2-2-|---------------------------------|
   - Pueblo  vive                  La  lucha - sigue                 El -
                 (El pueblo  vive!)                (La lucha - sigue!)


     A5(pm)          F#5(pm)           C#5(pm)         D5(pm)    E5
  e|---------------------------------|---------------------------------|
  B|---------------------------------|---------------------------------|
  G|---------------------------------|---------6-----------7-----9-x-9-|
  D|---------7---------------4-------|-6-6-6-6-6-----6-7-7-7-----9-x-9-|
  A|-7-7-7-7-7-------4-4-4-4-4-----4-|-4-4-4-4-4-----4-5-5-5-5-5-7-x-7-|
  E|-5-5-5-5-5-------2-2-2-2-2-----2-|---------------------------------|
   - Pueblo vive                   La  lucha sigue
             vive (El pueblo vive!)           sigue (La lucha  sigue!)


     D5           E5             A5          B5
       La dignità non si arrende - il popolo si difende

     D5              E5
  e|---------------------------------|---------------------------------|
  B|---------------------------------|---------------------------------|
  G|-7-7-7-7-7-7-7-7-9-9-9-9-9-9-9-9-|-9-9-9-9-9-9-9-9-9-9-9-9-9-9-9-9-|
  D|-7-7-7-7-7-7-7-7-9-9-9-9-9-9-9-9-|-9-9-9-9-9-9-9-9-9-9-9-9-9-9-9-9-|
  A|-5-5-5-5-5-5-5-5-7-7-7-7-7-7-7-7-|-7-7-7-7-7-7-7-7-7-7-7-7-7-7-7-7-|
  E|---------------------------------|---------------------------------|
           La lucha  siege

     E5
  G|-------------------| L
  D|-------------------| E
  A|->> pick scrape >>-| A
  E|-------------------| D

  e|-------------------| R
  B|-------------------| H
  G|-9-9-9-9-9-9-9-9-9-| Y
  D|-9-9-9-9-9-9-9-9-9-| T
  A|-7-7-7-7-7-7-7-7-7-| H
  E|-------------------| M
           El pueblo -


CHORUS:

     A5         F#5        C#5        D5   E5       [x2]
   - Vive   -   e   -   -  e   -   -    el pueblo - 
      (Ya basta   ya basta   ya basta)

     A5         F#5        C#5        D5   E5       [x2]
   - Vive vive  vive vive  vive  vive   el pueblo - 
      (Ya basta   ya basta   ya basta)


     A5 (hold)
  e|---------------------------------|---------------------------------|
  B|---------------------------------|---------------------------------|
  G|---------------------------------|---------------------------------|
  D|-7~~~~~~~~~~~~~~~~~~~~~~~~~~~~~~~|~~~~~~~~~~~~~~~~~~~~~~~~~~~~~----|
  A|-7~~~~~~~~~~~~~~~~~~~~~~~~~~~~~~~|~~~~~~~~~~~~~~~~~~~~~~~~~~~~~----|
  E|-5~~~~~~~~~~~~~~~~~~~~~~~~~~~~~~~|~~~~~~~~~~~~~~~~~~~~~~~~~~~~~----|
   - Vive                              Ya - basta!
   

---------------------------------------------------------------------------
Добавлено: 17.05.2012
Вам также может быть интересно:
Другие материалы по этой песне:
  • Аккорды и текст

Страница создана 17.05.2012
http://primanota.ru/los-fastidios/ya-basta-chords.htm
Привет, Гость.
Предлагаем пройти революционный курс по гитаре.
Подарок от PrimaNota.Ru, забирай!