PrimaNota.ru - самый крупный в мире бесплатный архив песенных текстов, аккордов, табулатур и нот


Los Fastidios - Sharp - текст песни, таба, бас-таба, видео

Регистрация Запомнить меня
Войти через:  Facebook Google Twitter Vk Yandex Mail.ru

Los Fastidios - Sharp - текст песни, таба, бас-таба, видео

Печатать
Просмотров: 236
-----------------------------------------------------

Band:  Los Fastidios
Song:  S-H-A-R-P
Album: Contiamo Su Di Voi! (KOB/Mad Butcher Records)

Transcribed by Andreas Karlsson (Mar 2, 2007)

-----------------------------------------------------

CHORDS:

     A5  F5  C5  G5
 e|-----------------|
 B|-----------------|
 G|----------5------|
 D|--7---3---5---5--|
 A|--7---3---3---5--|
 E|--5---1-------3--|


(n.c.) = no chord
  \    = slide down
  ~    = vibrato

Standard tuning

226 BPM

-----------------------------------------------------

INTRO:

  [bass enters]

   A5      F5       G|-----------------|
   Skin! E Punk!    D|-5---5-5---5-5---|
   C5      G5* ---> A|-5---5-5---5-5---|
   Skin! E Punk!    E|-3---0-3---0-3---|

   A5  F5  C5  G5 (strum once & mute)


VERSE 1:

      A5       F5   C5         G5
   Il lungo corteo - si sta muovendo
   A5       F5         C5         G5
    Ci vedi arrivare infondo alla via
   A5          F5      C5      G5
    Senti gli slogan stiamo cantando
   A5          F5     C5        G5
    Siamo accerchiati dalla polizia

   A5   F5  C5     G5
   Wo-o-oh  wo-o-o-oh
   A5   F5  C5     G5*
   Wo-o-oh  wo-o-o-oh


VERSE 2:

  A5        F5     C5         G5
   E puoi vedere i nostri striscioni
  A5         F5      C5         G5
   L'elmo troiano si alza su di noi
  A5          F5       C5         G5
   Senti il rumore dei nostri scarponi
  A5      F5    C5         G5
   A fate largo ai ribelli oi


CHORUS:

   C5 C5 C5 C5  C5 C5    C5
   Essae uh-kuh uh errae pe (S-H-A-R-P)
   F5             G5
   Skin e Punk contro il razzismo

   C5 C5 C5 C5  C5 C5    C5
   Essae uh-kuh uh errae pe
   F5            G5
   Per le vie della città

   C5 C5 C5 C5  C5 C5    C5
   Essae uh-kuh uh errae pe
      F5         G5
   La voce dei ribelli

   C5 C5 C5 C5  C5 C5    C5
   Essae uh-kuh uh errae pe
      F5            G5
   La forza una realtà

   A5    F5     C5       G5
   Essae uh-kuh uh errae pe
   A5    F5     C5       G5 
   Essae uh-kuh uh errae pe


INTERLUDE:

   A5  F5  C5  G5 (strum once & mute)


SOLO (play twice):

   A5                F5
e|-----------------|-----------------|
B|-5---3-------3---|-5---3-------3---|
G|-------5---------|-------5---------|
D|-----------------|-----------------|

   C5                G5
e|-----------------|-----------------|
B|-5-----5-----6---|-3~~~~~~~~~~~~~~-|
G|-----------------|-----------------|
D|-----------------|-----------------|

   A5                F5
e|-----------------|-----------------|
B|-5---3-------3---|-5---3-------3---|
G|-------5---------|-------5---------|
D|-----------------|-----------------|

   C5                G5
e|-3---------------|-----------------|
B|-------6-----5---|-3---5-6---5-3---|
G|-----------------|-----------------|
D|-----------------|-----------------|

                     G5                A5 
                   |-----------------|--------
 Second time play: |-3---5-6---5-3\1-|--------
                   |-----------------|-2~~~~~~
                   |-----------------|--------


[Repeat VERSE 1] (Il lungo corteo ...)

[Repeat VERSE 2] (E puoi vedere ...)

[Repeat CHORUS]  (S-H-A-R-P ...)


ENDING:

   A5 (hold)

   (n.c.)
   Essae uh-kuh uh errae pe

               (pick scrape)
   Essae uh-kuh uh errae pe

   A5    F5     C5       G5
   Essae uh-kuh uh errae pe
   A5    F5     C5       G5             
   Essae uh-kuh uh errae pe - skinhead!

   A5 (hold)


-----------------------------------------------------
Добавлено: 22.05.2012
Другие материалы по этой песне:

Страница создана 07.04.2012
http://primanota.ru/los-fastidios/sharp-chords.htm
Привет, Гость.
Предлагаем пройти революционный курс по гитаре.
Подарок от PrimaNota.Ru, забирай!