PrimaNota.ru - самый крупный в мире бесплатный архив песенных текстов, аккордов, табулатур и нот


Los Fabulosos Cadillacs - Basta De Llamarme As - бас-таба, видео

Регистрация Запомнить меня
Войти через:  Facebook Google Twitter Vk Yandex Mail.ru

Los Fabulosos Cadillacs - Basta De Llamarme As - бас-таба, видео

Печатать
Просмотров: 210
-------------------------------------------------------------------------------
		Basta de llamarme así - Los Fabulosos Cadillacs
-------------------------------------------------------------------------------

Tabbed By : Crono_jd
Tuning:Standard

Well, here is the bass tab for the new version of "Basta de Llamarme así", you can found 
in the album "La luz del Ritmo".

The bass line is pretty cool and easy:


G|--------------|
D|--------------|
A|------777-7-7-| X2
E|-5-5-5--------|

G|----------------------|
D|------999-9-9---------|
A|-7-7-7--------7-7-7-8-|
E|----------------------|

G|-----9--9---|
D|------11-11-|
A|-9-9--------| X2
E|------------|

G|-------11--11---|
D|---------12--12-|
A|----------------| X2
E|-10-10----------|

G|-------6---7---8---9---7---6-----|
D|---7---------------------------9-|
A|-----4---5---6---7---5---4-------|
E|-5---------------------------7---|

Just repeat that during the intro, verse 1, verse 2, Bridge, Verse 3, and Bridge 2.
Then Play this:

G|---|---|---|---|
D|---|---|---|---|
A|-2-|---|-4-|---| x2
E|---|-2-|---|-4-|

G|---------------------------------------------------|
D|-------4---4-------------------6---6-----4h6-4-----|
A|-2-2-2---2---------4---4-4-4-4---4-------------6-4-| Until it fades out
E|-------------2-2-2---2---------------4-4-----------|


| /  slide up
| \  slide down
| h  hammer-on
| p  pull-off
| ~  vibrato
| +  harmonic
| x  Mute note
===============================================================================
Добавлено: 25.02.2012
Другие материалы по этой песне:
  • Аккорды и текст

Страница создана 25.02.2012
http://primanota.ru/los-fabulosos-cadillacs/basta-de-llamarme-as-chords.htm
Привет, Гость.
Предлагаем пройти революционный курс по гитаре.
Подарок от PrimaNota.Ru, забирай!