PrimaNota.ru - самый крупный в мире бесплатный архив песенных текстов, аккордов, табулатур и нот


Los Fabulosos Cadillacs - Algo Contigo - текст песни, таба, видео

Регистрация Запомнить меня
Войти через:  Facebook Google Twitter Vk Yandex Mail.ru

Los Fabulosos Cadillacs - Algo Contigo - текст песни, таба, видео

Печатать
Просмотров: 146
   E.  E  S S S   E.  E  S S S    E.  E  S S S   E.  E  S S S
E||------3------3-------3------3-|------3------3-------3------3-|
B||---------3---3----------3---3-|---------3---3----------3---3-|
G||--4--------4---4g5--------5---|--4--------4---4g5--------5---|
D||------------------------------|------------------------------|
A||------------------------------|------------------------------|
E||--3--------------3------------|--3--------------3------------|


  E.  E  S S S   E.  E  S S S    E.  E  S S S   E.  E  S S S
------3------3-------3------3-|------3------3-------3------3-|
---------3---3----------3---3-|---------3---3----------3---3-|
--4--------4---4g5--------5---|--4--------4---4g5--------5---|
------------------------------|------------------------------|
------------------------------|------------------------------|
--3--------------3------------|--3--------------3------------|


  E.  E  S S S E.  Q    S    E.  E  E.  E.  E  E.
------3------3-----3----L-|--------------------2---|
---------3---3-----3----L-|------2------4----------|
--4--------4---4----------|------2------4----------|
--------------------------|--4---4------4----------|
--------------------------|--4--------------2------|
--3------------3----------|--2---------------------|


  E.  E  S  S  Q    S Q
----------------------2----|
---------3h-5p-3------2----|
------0-------------3------|
------2--------------------|
------2--------------------|
--0------------------------|

  S S S E.  E  E.  E.  E     E.  E  E  H        S
--0-1-0-------------------|---------3-------------|
--1-----1-----------------|------------5----------|
-------------------4------|------4----------------|
-------------------5------|--5--------------------|
-------------------2---0--|--3--------------------|
------------0--3---3------|---------------------0-|


  S E  S E  E.  E.  E  E
------------0---0------0--|
---------3------5---3-----|
-------4------------------|
--------------------------|
--------------------------|
--L-3---------------------|


  S E  S S S E  S S E  S S S S    H        S S S E  E.
--L----------------------------|------------------------|
---------1--------0-1------0---|--1------------0-1------|
----0--------0---------0-------|-------------0------0---|
----2------2-------------2-----|------------------------|
----3--3--------3------------3-|-----------3------------|
-------------------------------|------------------------|


  E  E.  E  Q    E  S E     E  E.  E  E  S Q.
-------------------------|------------------------|
-----5-----------5-------|---------------3-L------|
-----5---5----------5----|------------4-----------|
---------5--5---------5--|------------------------|
------------3------------|------------------------|
-------------------------|--0--3---3--------------|


 E.   E  E  E  Q    S E
----------3------------1--|
-------------3---------1--|
------/4--------4------2--|
---------------------0----|
--------------------------|
--------------------------|


  E  E.  E  E  S E.  E.     E  E  S S S S S S S E  S S S
---------0-------0-------|-------------------------------|
------------3--------3---|-----1--------------0-1--------|
---------------1---------|----------0---0--------------0-|
-----2-------------------|--------2-------2----------2---|
-----2-------------------|-----3------3-----3------3-----|
-------------------------|-------------------------------|


  E  E  S E  E  S S E  S S S    E  E  S E  E  S S E  S S S
-----------------------------|-----------------------------|
-----2------------0-2--------|-----2------------0-2--------|
--L--0----0----------------0-|--L--0----2----------------2-|
-----2-------2-----------2---|-----2-------2-----------2---|
--------3-------3------3-----|--------3-------3------3-----|
-----------------------------|-----------------------------|


  E  E.  E  E  S Q.
------------------------|---------|
------------1--3-L------|---------|
--L------2--------------|---------|
-----0------------------|---------|
------------------------|---------|
------------------------|---------|
Добавлено: 14.04.2012
Другие материалы по этой песне:
  • Аккорды и текст

Страница создана 23.02.2012
http://primanota.ru/los-fabulosos-cadillacs/algo-contigo-chords.htm
Привет, Гость.
Предлагаем пройти революционный курс по гитаре.
Подарок от PrimaNota.Ru, забирай!