PrimaNota.ru - самый крупный в мире бесплатный архив песенных текстов, аккордов, табулатур и нот


Los Dynamite - Ready Ready - таба, видео

Регистрация Запомнить меня
Войти через:  Facebook Google Twitter Vk Yandex Mail.ru

Los Dynamite - Ready Ready - таба, видео

Печатать
Просмотров: 153
Intro

---------------        ---------------|
---------------        ---------------|
---5-5-5-8-8---   x9   ---3-3-3-3-3---|   x1
---5-5-5-8-8---        ---3-3-3-3-3---|
---3-3-3-6-6---        ---5-5-5-5-5---|
---------------        ---------------|


Riff 1


Guitar 1

---------------------------------------------|
---------------------------------------------|
---5-5-8-8--------------5-5-6-6-8-x-8-10-8---|
---5-5-8-8-6-x-6-x-6----5-5-6-6-8-x-8-10-8---|
---3-3-6-6-6-x-6-x-6----3-3-4-4-6-x-6-8--6---|
-----------4-x-4-x-4-------------------------|

Guitar 2

----------------------------------------|
----------------------------------------|
----------------------------------------|
----------------------------------------|
---3-3-6-3----------------3-3-6-3-6-8---|
-----------6-4-x-4-x-4------------------|


Riff 2

Guitar 1

--------------------------------------|
--------------------------------------|
--------------------------------------|
--------------------------------------|
--------------------------------------|
---88888888333333334444444444444444---|

Guitar 2

---------------------|
---------------------|
---8-5---------------|
-------6-8-5-6---5---|
---------------8-----|
---------------------|


Riff 3

Guitar 1

--------------------------------------|
--------------------------------------|
--------------------------------------|
--------------------------------------|
--------------------------------------|
---33333333333333330000000000000000---|

--------------------------------------|
--------------------------------------|
--------------------------------------|
--------------------------------------|
--------------------------------------|
---77777777777777777777777777777777---|

Guitarra 2

---------------       ------------------------77-7-------------|
---5---8---8/--       ------55-5-5555885858888--8-8------------|
---5---6---9/--   x1  --5555--5-5------------------444477474---|
---5---7---9/--       -----------------------------------------|
---------------       -----------------------------------------|
---------------       -----------------------------------------|


Riff 4

------------------------------------------|
------------------------------------------|
------------------------------------------|
---10-10-10-1010101010-10-3-3-3-33333-3---|
---10-10-10-1010101010-10-3-3-3-33333-3---|
---8--8--8--8-8-8-8-8--8--1-1-1-11111-1---|

---------------------------------|
---------------------------------|
---------------------------------|   x2
---6-6-6-66666-6-5-5-5-55555-5---|
---6-6-6-66666-6-5-5-5-55555-5---|
---4-4-4-44444-4-3-3-3-33333-3---|


Outro

------------------------------------------|
------------------------------------------|
------------------------------------------|
---10-10-10-1010101010-10-3-3-3-33333-3---|
---10-10-10-1010101010-10-3-3-3-33333-3---|
---8--8--8--8-8-8-8-8--8--1-1-1-11111-1---|

---------------------------------|
---------------------------------|
---------------------------------|
---6-6-6-66666-6-5-5-5-55555-5---|
---6-6-6-66666-6-5-5-5-55555-5---|
---4-4-4-44444-4-3-3-3-33333-3---|


http://www.losdynamite.com/
Добавлено: 23.06.2012
Другие материалы по этой песне:

Страница создана 10.05.2012
http://primanota.ru/los-dynamite/ready-ready-chords.htm
Привет, Гость.
Предлагаем пройти революционный курс по гитаре.
Подарок от PrimaNota.Ru, забирай!