PrimaNota.ru - самый крупный в мире бесплатный архив песенных текстов, аккордов, табулатур и нот


Los Dynamite - No Me Sueltes - таба, видео

Регистрация Запомнить меня
Войти через:  Facebook Google Twitter Vk Yandex Mail.ru

Los Dynamite - No Me Sueltes - таба, видео

Печатать
Просмотров: 66
Новый альбом группы 'Черный Кузнец' по культовому сериалу 'Сверхъестественное'!
Esta es la rola del 2006, la que es asi como que mas relajada!!
No es la que viene en los grandes hits...
Acordes

E5 D5 C#5 A5 (guitarra 2)

  no, no, por favor hoy no me sueltes....

guitarra 1

e------------------------------------------------------
B------------------------------------------------------
G--777-9-9-9-9-(x2)---777-9-9-999---777-9-9-9-9--9-7---
D---------------------------------------------------7--
A------------------------------------------------------
E------------------------------------------------------

e------------------------------------------------------
B------------------------------------------------------
G--777-9-9-9-9--777-9-9-9-9(s)4--4(s)6-6-7-777-9-9-9-9-
D------------------------------------------------------
A------------------------------------------------------
E------------------------------------------------------

e------------------------------------------------------
B------------------------------------------------------
G--777-9-9999999999777-9-9-9-9--777-9-9-9-9-9-9-9-9-9--
D------------------------------------------------------
A------------------------------------------------------
E------------------------------------------------------

guitarra 1
e--------------------------------------------------------------
B--------------------------------------------------------------
G--------------------------------------------------------------
D--6-7---7-6---6666777777776666666--6-7---7-6---666-6-6-----6--
A-------------------------------------------------------5-7----
E--------------------------------------------------------------
la la la, hoy no me sueltes no...
e------------------------------------------------------
B------------------------------------------------------
G------------------------------------------------------
D-6-77-7-7-6-6--6--6--6--7-7-7777-7-77-6-6-66666666----
A------------------------------------------------------
E------------------------------------------------------

 no no no, no me dejes por favor, si si me dejas...

(recomendable escuchar la rola
para el cambio de rasgueo en esta parte)
           guitarra 1                                guitarra 2
  G5(x4)  F#5(x4)  D5(x4)  F#5(x4)-> x6     E5(x8)  C#5(x4)  G5   E5
e----------------------------------------------------------------------
B----------------------------------------------------------------------
G--7--------6------14--------6---------------9--------6-------12----9--
D--5--------4------12--------4---------------9--------6-------12----9--
A--------------------------------------------7--------4-------10----7--
E----------------------------------------------------------------------

no no, por favor hoy no me sueltes, en las mañanas me arrepiento...
guitarra 1
e--------------------------------------------------
B--------------------------------------------------
G--777-9-9-9-9-(x4)--777-9999999--777-9-9-9-9--9-7-
D----------------------------------------------7---
A--------------------------------------------------
E--------------------------------------------------
yo solo asusto a las personas...
e----------------------------------------------
B----------------------------------------------
G--777-9999999--777-9-9-9-9-9-9-9-9-9----------
D----------------------------------------------
A----------------------------------------------
E----------------------------------------------

guitarra 2
e------------------------------------------
B------------------------------------------
G------------------------------------------
D---------4(x9)--7(x9)---------------------
A--7(x18)---------------4(x9)--------------
E------------------------------------------

no no no no, no me sueltes por favor,, si si me sueltas....
guitarra 1
  G5(x4)  F#5(x4)  D5(x4)  F#5(x4)-> x5
e------------------------------------------
B------------------------------------------
G--7--------6------14--------6-------------
D--5--------4------12--------4-------------
A------------------------------------------
E------------------------------------------


Bueno pues esta es mi primer transcripcion jejeje, aparte es una
rola muy chida y se escucha sencilla!! a peticion de nuestro
buen amigo Gama y para los Jacks un cover!!

saludos¡!
Добавлено: 08.11.2014
Другие материалы по этой песне:
  • Аккорды и текст

Страница создана 08.11.2014
http://primanota.ru/los-dynamite/no-me-sueltes-chords.htm
Привет, Гость.
Предлагаем пройти революционный курс по гитаре.
Подарок от PrimaNota.Ru, забирай!