PrimaNota.ru - самый крупный в мире бесплатный архив песенных текстов, аккордов, табулатур и нот


Los Destellos - Elsa - таба, видео

Регистрация Запомнить меня
Войти через:  Facebook Google Twitter Vk Yandex Mail.ru

Los Destellos - Elsa - таба, видео

Печатать
Просмотров: 52
HOLA A LA GENTE QUE LE GUSTA LA MUSICA , BUENO ESTE ES
UNA DE LAS PRIMERAS CANCIONES QUE SAQUE AL OIDO,ESPERO
QUE LES GUSTE SE LLAMA "ELSA",
BUENO ESTE NO ES MI GENERO PREFERIDO PERO COMO SOY ALGO
PRINCIPIANTE SE ME HACE DIFICIL SACAR UNA DE MAIDEN PSSS


INTRO:
                               X4
Bajo:
|----------------------------------|
|----------------------------------|
|----0----------0-------0----------|
|-------0-3---0-----0-3---3-0------|

Guitarra:                      X4
|----------------------------------|
|----------------------------------|
|----2----0-----2-----0-2-0--------|
|-------2-----2-----2-------2------|
|----------------------------------|
|----------------------------------|

Guitarra 2:                    X2
|----------------------------------|
|----1----0-----1-----0-1-0--------|
|-------0-----2-----0-------2------|(entra en la tercera)
|----------------------------------|
|----------------------------------|
|----------------------------------|


|--5-5--5-8-12--8--------|---------------------------|
|------------------17-17-|--------------17-----17-17-|
|------------------------|-----------17-----17-------|
|------------------------|-19-19--19-----------------|
|------------------------|---------------------------|
|------------------------|---------------------------|

|----------------------------|--------------------------|
|--------------17------17-17-|-------------15------17---|
|-----------17-----17--------|-----------16----16-------|
|-19-19--19------------------|-17-17--17-------------19-|
|----------------------------|--------------------------|
|----------------------------|--------------------------|


(cuando termine de sacar el solo lo pongo)

bueno espero q les sirba de algo el tab .
culquier duda,suguerencia o insulto
escribir a fabian_fj@

TBM TENGO VARIAS CANCIONES CUMBIA Y OTRAS EN GUITAR PRO
Добавлено: 01.12.2014
Другие материалы по этой песне:
  • Аккорды и текст

Страница создана 01.12.2014
http://primanota.ru/los-destellos/elsa-chords.htm
Привет, Гость.
Предлагаем пройти революционный курс по гитаре.
Подарок от PrimaNota.Ru, забирай!