PrimaNota.ru - самый крупный в мире бесплатный архив песенных текстов, аккордов, табулатур и нот


Los De Marras - Sexo En La Calle - таба, видео

Регистрация Запомнить меня
Войти через:  Facebook Google Twitter Vk Yandex Mail.ru

Los De Marras - Sexo En La Calle - таба, видео

Печатать
Просмотров: 74
 Tab by SERGIO

 Intro: 
 
 Am F C G (En acordes mayores)

 Mientras suena la intro: Punteo 1 (x2) + Punteo 2

  Punteo 1:                         Punteo 2:

 e|------------------------|       e|-------------------------------------------------|
 B|------------------------|       B|-------------------------------------------------|
 G|------------------------|       G|-------------------------------------------------|
 D|--3-2--------5-3-2-0----|       D|--2-3-3-2-3-3-------------3-5-5-3-5-5------------|
 A|------2-3---------------|       A|--------------2-3-3-2-3-3-------------3-5-5-3-5--|
 E|------------------------|       E|-------------------------------------------------|

  Punteo 3:                            Punteo 4:
  
 e|------------------------------|      e|-----------------|
 B|------------------------------|      B|-----------------|
 G|--------9----------9-7--------|      G|--------7-9-10---|
 D|-7-10-9-----7-10-9-----10-9---|      D|-7-9-10----------|
 A|------------------------------|      A|-----------------|
 E|------------------------------|      E|-----------------|


 Ahora los acordes en quintas:

 
 A                                F
 Quiero queme ahorques con tus bragas.
 C                              G
 Quiero atragantarme con tus flujos vaginales,
 A                                  F
 jugaremos a los juegos más antinaturales
 C                                  G
 follaremos en el suelo como unos animales,
 A                                      F
 cuando la luna lo diga, saldremos escurrios,
 C                                     G
 que si viene nos la lía monta una carnicería

 F                            G                     A
 y a quien coño se le ocurre tener... un viejo policía + PUNTEO 3 (x4)


 A                           F
 Quiero cabalgar sobre tu lomo.
 C                                        G
 Quiero que te anudes a mi cuello y te lo como,
 A                                         F
 perderemos los papeles follando en ascensores
  C                                          G
 en el patio de un colegio o en techo de mi coche,
 A                                          F
 brindaremos un orgasmo a la gente que nos mira
 C                                       G             F      G                      A                              
 que nos grita, nos critica y en el fondo lo que pasa, es... es... que se mueren de envidia + Punteo 4


 A          F           C           G
 Sexo en la calle o en cualquier jardín.
 A          F           C        G
 Quiero que sepan como estoy por ti.
 A          F           C         G        
 Vicios prohibidos en cualquier rincón.
 A         F         C          G  
 Orgasmos salvajes follando a piñón  + Punteo 1 + Punteo 2 (En acordes mayores)


 A                         F
 Quiero que me ates a tu cama.
 C                                   G
 Quiero que me arañes hasta que sangre mi alma,
 A                                   F
 romperos nuestros cuerpos a golpes de lascivia
 C                                  G
 follaremos en el metro saldremos en las noticias,
 A                                F
 pensaran que estamos locos que no somos humanos
 C                                   G
 si lo nuestro es puro vicio, solo sexo una locura

 F                             G                         A
 tu te estas mojando toda y a mi...Se me esta poniendo dura

  Solo:

 E|----------------------------------------------------------------------------------------------------------------|
 B|----------------------------------------------------------------------------------------------------------------|
 G|---------9----------9-7-----------------------------------7----7------------------------------------------------|
 D|--7-10-9-----7-10-9-----10-9-----------------------7-9-10---10---10-9-10-9-7-10-9-7-----------------------------|
 A|------------------------------7-8-7-8---7-8-7-8-10----------------------------------10-8--8-7-----8-7-----------|
 E|-----------------------------------------------------------------------------------------------10-----10-8-7-8--|


 A                               F
 Quiero ser un 'pirsin' en tus tetas.
 C                                     G
 Quiero ser un bicho que te sube por las piernas,
 A                                            F
 para llegar a ese monte donde se que hay más bichitos
 C                                               G
 que te pican que se esconden que están todos calentitos,
 A                                      F
 y me voy a poner chulo para echarlos a patadas
 C                                        G
 y el que me vacile pilla no me ando con tonterias
  
 F                        G                      A
 y es que me pongo celoso... hasta de tus ladillas + Punteo 4


 A             F           C          G
 Sexo en la calle o en cualquier jardín.
 A             F        C         G
 Quiero que sepan como estoy por ti.
 A            F         C          G
 Vicios prohibidos en cualquier rincón.
 A            F         C         G (Mantener)
 Orgasmos salvajes follando a piñón


 -Ahora se toca otra vez lo mismo pero a toda ostia y haciendo Palm Mute y fin de la cancion


 Acordes:
 
   Mayores:         Quintas:
    Am  G  C  F     A  G  C  F
 e|--0--3--0--1-------------------|
 B|--1--0--1--1-------------------|
 G|--2--0--0--2-----------5-------|
 D|--2--0--2--3-----7--5--5--3----|
 A|--0--2--3--3-----7--5--3--3----|
 E|-----3-----1-----5--3-----1----|


                        PARA CUALKIER DUDA:
      
                          TRIBAL2@
Добавлено: 15.08.2014
Другие материалы по этой песне:
  • Аккорды и текст

Страница создана 15.08.2014
http://primanota.ru/los-de-marras/sexo-en-la-calle-chords.htm
Привет, Гость.
Предлагаем пройти революционный курс по гитаре.
Подарок от PrimaNota.Ru, забирай!