PrimaNota.ru - самый крупный в мире бесплатный архив песенных текстов, аккордов, табулатур и нот


Los Colorados - Du Hast - таба, видео

Регистрация Запомнить меня
Войти через:  Facebook Google Twitter Vk Yandex Mail.ru

Los Colorados - Du Hast - таба, видео

Печатать
Просмотров: 50
Solo from Los Colorados' Du hast cover. 

Song link: https://www.youtube.com/watch?v=a5xSxGhlHfc

Solo at 2:58 

Tabbed by Luka Sterle



|---------------------------------7------------------------------------------------------------|
|------7--8-7-8--------7--8-7-8-----10----------------10----10-----------10----10---10---------|
|----9---------------9--------------------------11-12----12--------11-12----12---------12v~~~--|
|--9---------------9-------------------10v~~-10-----------------10-----------------------------|
|----------------------------------------------------------------------------------------------|
|----------------------------------------------------------------------------------------------|

|-------------------------------------------13-12------15-14-12-14-14b15-14----12-11-12v~~~----|
|-----12-13--15-13-15-----12-13--15-13-15---------13-------------------------------------------|
|----------------------------------------------------------------------------------------------|
|--14------------------14----------------------------------------------------------------------|
|----------------------------------------------------------------------------------------------|
|----------------------------------------------------------------------------------------------|

Добавлено: 22.04.2016
Другие материалы по этой песне:
  • Аккорды и текст

Страница создана 22.04.2016
http://primanota.ru/los-colorados/du-hast-chords.htm
Привет, Гость.
Предлагаем пройти революционный курс по гитаре.
Подарок от PrimaNota.Ru, забирай!