PrimaNota.ru - самый крупный в мире бесплатный архив песенных текстов, аккордов, табулатур и нот


Los Belkings - Blido De Fuego - таба, видео

Регистрация Запомнить меня
Войти через:  Facebook Google Twitter Vk Yandex Mail.ru

Los Belkings - Blido De Fuego - таба, видео

Печатать
Просмотров: 58
Уроки эстрадного вокала в Санкт-Петербурге
Los Belkings - Bólido de Fuego

Tablatura hecha por Nigel Gómez Núñez (nigel_12_1994@hotmail.com)

/  = slide
tr = tremolo picking
Esta canción es fácil, la saque al oido asi que disculpen si es que hay algun error.
La canción empieza con este acorde:
--5---5---5--5-------------------------|
--5---5---5--5-------------------------|
--5---5---5--5-------------------------|
--7---7---7--7-------------------------|
--7---7---7--7-------------------------|
--5---5---5--5-------------------------|

Luego el punteo:

---------------------------------------------------------------|
---------------------------------------------------------------|
--------5-5/9--7--7-5-7-5-----------4-4/7--5--5-4-5-4----------|
--7---7-------------------9-7----5-5------------------7-5------|
---------------------------------------------------------------|
---------------------------------------------------------------|
                                                                 Todo esto x2
---------------------------------------------------------------|
---------------------------------------------------------------|
-----------5-7---7/9--7/9--7/9--5--9-9-7-9----10tr-9tr-7tr-5tr-|
---------7-----------------------------------------------------|
--8------------------------------------------------------------|
---------------------------------------------------------------|

--------------------------------------------------------------|
--6-6---------------------------------------------------------|
--------5-5/7-7-----10-9-7-9-----10tr-9tr-7tr-5tr-------------|
--------------------------------------------------------------|  x2
--------------------------------------------------------------|
--------------------------------------------------------------|

--------------------------------------------------------------|
---------------------5---------------------5------------------|
--5-4-5----5-4-2-4-5-----7-5-7---7-5-4-5-7--------------------|  x2
--------------------------------------------------------------|
--------------------------------------------------------------|
--------------------------------------------------------------|

--------------------------------------------------------------|
--6-6-6-------------------------------------------------------|
--------5-5/7-7-----10-9-7-9-----10tr-9tr-7tr-5tr-------------|
--------------------------------------------------------------|
--------------------------------------------------------------|
--------------------------------------------------------------|

--------------------------------------------------------------|
--6-6---------------------------------------------------------|
--------5-5/7-7-----10-9-7-9-----10tr-9tr-7tr-5tr-------------|
--------------------------------------------------------------|
--------------------------------------------------------------|
--------------------------------------------------------------|

Luego se repite todo otra vez. ¡Saludos desde Perú!
Добавлено: 11.08.2013
Вам также может быть интересно:
Другие материалы по этой песне:
  • Аккорды и текст

Страница создана 11.08.2013
http://primanota.ru/los-belkings/blido-de-fuego-chords.htm
Привет, Гость.
Предлагаем пройти революционный курс по гитаре.
Подарок от PrimaNota.Ru, забирай!