PrimaNota.ru - самый крупный в мире бесплатный архив песенных текстов, аккордов, табулатур и нот


Los Bastardos Finlandeses - Acapulco - таба, видео

Регистрация Запомнить меня
Войти через:  Facebook Google Twitter Vk Yandex Mail.ru

Los Bastardos Finlandeses - Acapulco - таба, видео

Печатать
Просмотров: 60
-------------------------------------------------------------------------------
                             Acapulco - Los Bastardos Finlandeses
-------------------------------------------------------------------------------
Tabbed by: Mikdu
E-mail: 
Tuning: normal (EADGBe)

riff 1.  (intro and in verse)
e|------------------------------------------------------------------------| (Repeats)
B|10-10-10-9--9--9--10-9--10-10-10-9--9--9--10-9--10-10-10-9--9--9--10-9--|
G|7--7--7--7--7--7--7--7--7--7--7--7--7--7--7--7--7--7--7--7--7--7--7--7--|
D|------------------------------------------------------------------------|
A|------------------------------------------------------------------------|
E|------------------------------------------------------------------------|

riff 2. 
e|---------------------------------------| (Repeats)
B|-10---8----10--------10---8----7-------|
G|-7----7----7---------7----7----7-------|
D|---------------------------------------|
A|---------------------------------------|
E|---------------------------------------|

Riff 3.
e|---------------------------------------------------------------------------|
B|-10---10---10-10-----------------------------------------------------------|
G|-7----7----7--7------------------------------------------------------------|
D|---------------------------------------------------------------------------|
A|---------------------------------------------------------------------------|
E|---------------------------------------------------------------------------|


Chorus chords are:     | G | - | E | - | G | - | A | - |


The song is easy, go listen and figure it out yourself!


************************************

| /   slide up
| \   slide down
| h   hammer-on
| p   pull-off
| ~   vibrato
| +   harmonic
| x   Mute note
| b   Bend
| pb  Pre-bend
| br  Bend release
| pbr Pre-bend release
| brb Bend release bend

************************************
Добавлено: 14.12.2015
Другие материалы по этой песне:
  • Аккорды и текст

Страница создана 14.12.2015
http://primanota.ru/los-bastardos-finlandeses/acapulco-chords.htm
Привет, Гость.
Предлагаем пройти революционный курс по гитаре.
Подарок от PrimaNota.Ru, забирай!