PrimaNota.ru - самый крупный в мире бесплатный архив песенных текстов, аккордов, табулатур и нот


Los Angeles Negros - Háblame - таба, видео

Регистрация Запомнить меня
Войти через:  Facebook Google Twitter Vk Yandex Mail.ru

Los Angeles Negros - Háblame - таба, видео

Печатать
Просмотров: 107
Уроки эстрадного вокала в Санкт-Петербурге
INTRO

E|-------------------------------------|
B|---7--10-7-10-7-6---8--12-8-12-8-7-5-|
G|------------------4------------------|
D|-------------------------------------|
A|-------------------------------------|
E|-------------------------------------|

E|-5-9--12-9-12-9-8--11-8-11-8-7-10-7-10-7-6-|
B|-------------------------------------------|
G|-------------------------------------------|
D|-------------------------------------------|
A|-------------------------------------------|
E|-------------------------------------------|

A                       CDis
cuando te haga falta una ilusión
Bm
háblame
        M7
cuando sienta frio tu corazón
A
háblame
            F#7
que no habrá distancia en todo el mundo
          Bm
que no alcance por ti
         F#m                    B7
ni tendrá un rincón el mar profundo
               Bm         M7
que yo no encuentre por ti.
       A                      CDis
cada vez que veo brillar el sol
Bm
brillas tú
          M7
y en las notas de cualquier canción
A
vagas tú
        F#7
qué no ves

que estoy muriendo en vida
     Bm         G7
esperando por ti.
          A                        CDis
aunque estés allá en el fin del mundo
       Bm                 M7
a tu lado estoy en un segundo
      F#7
nada más
                    Bm
cierra tus lindos ojos
    M7      A
y háblame, háblame

SOLO

E-----14-12-10-9---------10-----|---12--10-9-7-5-4-5-9-----|
B--10------------12-10-9----8-8-|-8--------------------7-7-|
G-------------------------------|--------------------------|
D-------------------------------|--------------------------|
A-------------------------------|--------------------------|
E-------------------------------|--------------------------|

        F#7
qué no ves

que estoy muriendo en vida
     Bm         G7
esperando por ti.
          A                        CDis
aunque estés allá en el fin del mundo
       Bm                 M7
a tu lado estoy en un segundo
      F#7
nada más
                    Bm
cierra tus lindos ojos
    M7      A
y háblame, háblame
Добавлено: 10.04.2016
Другие материалы по этой песне:
  • Аккорды и текст

Страница создана 10.04.2016
http://primanota.ru/los-angeles-negros/hablame-chords.htm
Привет, Гость.
Предлагаем пройти революционный курс по гитаре.
Подарок от PrimaNota.Ru, забирай!