PrimaNota.ru - самый крупный в мире бесплатный архив песенных текстов, аккордов, табулатур и нот


Los Amigos Invisibles - Sexy - текст песни, бас-таба, видео

Регистрация Запомнить меня
Войти через:  Facebook Google Twitter Vk Yandex Mail.ru

Los Amigos Invisibles - Sexy - текст песни, бас-таба, видео

Печатать
Просмотров: 146
Уроки эстрадного вокала в Санкт-Петербурге
www.amigosinvisibles.com/

This is my first time writing tabs. Actually, i don't even have a bass and i tabbed this 
an acoustic guitar but it should be alright. Los Amigos Invisibles is one of the best 
around and this appears to be the first tab of them on this website... ENJOY!
Please rate this

I'm almost positive this is correct.

FUNK this, slap that bass!

G|--------------|
D|--------------|
A|--------------|
E|---0/12\0-----|

G|----------------------------------------------------------------|
D|-----2-------4-------5-----------------------------------0h2----|
A|--------------------------------0--0--0----2--2--3-----2--------|
E|--0-------2-------3-------4-------------------------------------| x3

It's played like this 3 times in the beginning and after both bridges

G|----------------------------------------------------------------|
D|-----2-------4-------5------------------------------------------|
A|--------------------------------0--0--0----2--2--3-----0h2------|
E|--0-------2-------3-------4-------------------------------------|

Then this is how it's played through the rest of the song

BRIDGE 1
G|--------------------------|
D|--------------------------|
A|--------------------------|
E|--0------2------1-/12\0---|


BRIDGE 2
G|----------------------------------------------------------------|
D|----------------------------------------------------------------|
A|--------------------------------0--0--0----2--2--3-----(2)-2----|
E|--0-------2-------3---------------------------------------------|

that's it...

L.A.I VENEZUELA


tabbed by slampo
Добавлено: 13.06.2012
Другие материалы по этой песне:

Страница создана 04.06.2012
http://primanota.ru/los-amigos-invisibles/sexy-chords.htm
Привет, Гость.
Предлагаем пройти революционный курс по гитаре.
Подарок от PrimaNota.Ru, забирай!