PrimaNota.ru - самый крупный в мире бесплатный архив песенных текстов, аккордов, табулатур и нот


Lords Of Acid - Rover Take Over - аккорды и текст, видео

Регистрация Запомнить меня
Войти через:  Facebook Google Twitter Vk Yandex Mail.ru

Lords Of Acid - Rover Take Over - аккорды и текст, видео

Печатать
Просмотров: 125
Rover Take Over
Lords Of Acid
Song: Rover Take Over
Artist: Lords Of Acid
Album: Farstucker

Tabbed by Kristof Smits

Chorus:

The chorus starts with a nice slide, the 9/12-part is played very quick. =

e---------------------------------------
B---------------------------------------
G----9/12\2-----------------------------
D----9/12\2-----------------------------
A----9/12\2-----------------------------
E---------------------------------------

After this one-second-intermezzo, the fun-part comes along:
(This is my best guess!)
e---------------------------------------
B---------------------------------------
G--------7-7-7--------------------------
D--6-6---7-7-7---8-8-8---7-7-7----------
A--6-6---5-5-5---8-8-8---7-7-7----------
E--4-4-----------6-6-6---5-5-5----------
(played a few times, listen to the song for timing)

Here is the part where 'Lady Acid' stops singing...

play 3 times:
e----------------------------------------
B----------------------------------------
G---------7-7-7--------------------------
D--6-6-6--7-7-7---8-8-8---7-7-7----------
A--6-6-6--5-5-5---8-8-8---7-7-7----------
E--4-4-4----------6-6-6---5-5-5----------

4th time:
e----------------------------------------
B----------------------------------------
G---------7-7-7--------------------------
D--6-6-6--7-7-7---8-8-8---7-7-7---6------
A--6-6-6--5-5-5---8-8-8---7-7-7---6------
E--4-4-4----------6-6-6---5-5-5---4------


That's it...another catchy tune. A real sing-along-song! LOL
Play it and you'll feel good, I swear!


PS: This is all 'my own work'.
     
Добавлено: 17.09.2013
Другие материалы по этой песне:
  • Аккорды и текст

Страница создана 17.09.2013
http://primanota.ru/lords-of-acid/rover-take-over-chords.htm
Привет, Гость.
Предлагаем пройти революционный курс по гитаре.
Подарок от PrimaNota.Ru, забирай!