PrimaNota.ru - самый крупный в мире бесплатный архив песенных текстов, аккордов, табулатур и нот


Lords Of Acid - Pussy - текст песни, таба, бас-таба, видео

Регистрация Запомнить меня
Войти через:  Facebook Google Twitter Vk Yandex Mail.ru

Lords Of Acid - Pussy - текст песни, таба, бас-таба, видео

Печатать
Просмотров: 177
-----------------------------------------------------------------------------
                            Lords of Acid - Pussy
-----------------------------------------------------------------------------
Tabbed by: dustyattic

Bass Part:

e|-------------------------------------------------------------------------|
B|-------------------------------------------------------------------------|
G|-------------------------------------------------------------------------|
D|----5------4------3------------------------------------------------------|
A|---------------------------6------3-----------3------3-------------------|
E|-----------------------------------------------------------6-------------|


e|---------------------------------------|-------------------------13------|
B|---13h15-----13h15-----13h15p13--------|---13h15---13h15---13h15----15---|
G|--------------------------------12-----|---------------------------------|
D|-------------------------------------X3|---------------------------------|
A|---------------------------------------|---------------------------------|
E|---------------------------------------|---------------------------------|


Distorted Guitar:

e|-------------------------------------------------------------------------|
B|-------------------------------------------------------------------------|
G|-------------------------------------------------------------------------|
D|------------------------6p5-----5-----5-----5--3-------------------------|
A|----5-----5-----5p3-------------3-----3-----3--1-------------------------|
E|----3-----3--------------------------------------------------------------|

Pull off/hammer on as you see fit, these are suggestions.
Добавлено: 14.03.2012
Другие материалы по этой песне:

Страница создана 08.03.2012
http://primanota.ru/lords-of-acid/pussy-chords.htm
Привет, Гость.
Предлагаем пройти революционный курс по гитаре.
Подарок от PrimaNota.Ru, забирай!