PrimaNota.ru - самый крупный в мире бесплатный архив песенных текстов, аккордов, табулатур и нот


Lords Of Acid - Love Bus - таба, видео

Регистрация Запомнить меня
Войти через:  Facebook Google Twitter Vk Yandex Mail.ru

Lords Of Acid - Love Bus - таба, видео

Печатать
Просмотров: 70
Авторы: Praga Khan, Erhan Kurkun

Love Bus by Lords Of Acid
Tabbed by: Brandon Goddard

Intro:
e---------------------------------------------------------------------------------------------------|
B---------------------------------------------------------------------------------------------------|
G----10--10--10-10-10--10-10------------------------------------------------------------------------|
D----10--10--10-10-10--10-10--10----8---8---8---8\--------------------------------------------------|
A----8---8---8--8--8---8--8---10----8---8---8---8\--------------------------------------------------|
E-----------------------------8-----6---6---6---6\--------------------------------------------------|

Bass plays
--------10----------10----------10------------------------------------------------------------------|
-----------------------------------------------10----------8----------8\----------------------------|
--8------------8-----------8------------------------------------------------------------------------|
-----------------------------------------8------------6----------6----------------------------------|


Verse:
I am a wild child/Hey Im a rock machine. . .

Guitar rests the first half
Bass plays intro octaves

Guitar comes back in:
I am a wild child/And when I hit the stage. . .

----------------------------------------------------------------------------------------------------|
----------------------------------------------------------------------------------------------------|
----10--10--10-10-10--10-10-------------------------------------------------------------------------|
----10--10--10-10-10--10-10--10----8---8---8---8\---------------------------------------------------|
----8---8---8--8--8---8--8---10----8---8---8---8\---------------------------------------------------|
-----------------------------8-----6---6---6---6\---------------------------------------------------|

Pre-Chorus:
And when the show is done. . .

Bass
--------6---------6---------6----------6---------5---------5---------3---------3--------------------|
----------------------------------------------------------------------------------------------------|
---4---------4---------4---------4----------3---------3---------1---------1-------------------------|
----------------------------------------------------------------------------------------------------|

----------------------------------------------------------------------------------------------------|
----------------------------------------------------------------------------------------------------|
----------------------------------------------------------------------------------------------------|
---0h1--1----0h1--1----0h1-------0h1--1----0h1--1----0h1--------------------------------------------|

--------6---------6---------6----------6---------5---------5---------3---------3--------------------|
----------------------------------------------------------------------------------------------------|
---4---------4---------4---------4----------3---------3---------1---------1-------------------------|
----------------------------------------------------------------------------------------------------|

----------------------------------------------------------------------------------------------------|
--------5---------5---------5----------5---------6---------6---------8---------8--------------------|
----------------------------------------------------------------------------------------------------|
---3---------3---------3---------3----------4---------4---------6---------6-------------------------|

(Technically just bass, but this is what the guitar could play to match the bass)

----------------------------------------------------------------------------------------------------|
----------------------------------------------------------------------------------------------------|
---6--6--6--6--6--6--6--6--5--5--5--3---3---3-------------------------------------------------------|
---6--6--6--6--6--6--6--6--5--5--5--3---3---3---2--3--3--2--3--3--2--3---2--3--3--2--3--3--2--3-----|
---4--4--4--4--4--4--4--4--3--3--3--1---1---1---2--3--3--2--3--3--2--3---2--3--3--2--3--3--2--3-----|
------------------------------------------------0--1--1--0--1--1--0--1---0--1--1--0--1--1--0--1-----|



----------------------------------------------------------------------------------------------------|
----------------------------------------------------------------------------------------------------|
---6--6--6--6--6--6--6--6--5--5--5--3---3---3-------------------------------------------------------|
---6--6--6--6--6--6--6--6--5--5--5--3---3---3-----5--5--5--5--5--5--5--5--6--6--6--8---8---8--------|
---4--4--4--4--4--4--4--4--3--3--3--1---1---1-----5--5--5--5--5--5--5--5--6--6--6--8---8---8--------|
--------------------------------------------------3--3--3--3--3--3--3--3--4--4--4--6---6---6--------|


Chorus:
Ride with us on the Love Bus. . .

----------------------------------------------------------------------------------------------------|
----------------------------------------------------------------------------------------------------|
----10--10--10-10-10--10-10-------------------------------------------------------------------------|
----10--10--10-10-10--10-10--10----8---8---8---8\---------------------------------------------------|
----8---8---8--8--8---8--8---10----8---8---8---8\---------------------------------------------------|
-----------------------------8-----6---6---6---6\---------------------------------------------------|

Break:

----------------------------------------------------------------------------------------------------|
----------------------------------------------------------------------------------------------------|
----10--10--10-10-10--10-10-------------------------------------------------------------------------|
----10--10--10-10-10--10-10--10----8---8---8---8\---------------------------------------------------|
----8---8---8--8--8---8--8---10----8---8---8---8\---------------------------------------------------|
-----------------------------8-----6---6---6---6\---------------------------------------------------|

Verse:
I am a wild child/I am your acid queen. . .
Guitar drops first half, bass plays octaves

Guitar comes back in
I am a wild child/And when I hit the stage. . .

----------------------------------------------------------------------------------------------------|
----------------------------------------------------------------------------------------------------|
----10--10--10-10-10--10-10-------------------------------------------------------------------------|
----10--10--10-10-10--10-10--10----8---8---8---8\---------------------------------------------------|
----8---8---8--8--8---8--8---10----8---8---8---8\---------------------------------------------------|
-----------------------------8-----6---6---6---6\---------------------------------------------------|

Pre-Chorus:
And when the show is done. . .

----------------------------------------------------------------------------------------------------|
----------------------------------------------------------------------------------------------------|
---6--6--6--6--6--6--6--6--5--5--5--3---3---3-------------------------------------------------------|
---6--6--6--6--6--6--6--6--5--5--5--3---3---3---2--3--3--2--3--3--2--3---2--3--3--2--3--3--2--3-----|
---4--4--4--4--4--4--4--4--3--3--3--1---1---1---2--3--3--2--3--3--2--3---2--3--3--2--3--3--2--3-----|
------------------------------------------------0--1--1--0--1--1--0--1---0--1--1--0--1--1--0--1-----|



----------------------------------------------------------------------------------------------------|
----------------------------------------------------------------------------------------------------|
---6--6--6--6--6--6--6--6--5--5--5--3---3---3-------------------------------------------------------|
---6--6--6--6--6--6--6--6--5--5--5--3---3---3-----5--5--5--5--5--5--5--5--6--6--6--8---8---8--------|
---4--4--4--4--4--4--4--4--3--3--3--1---1---1-----5--5--5--5--5--5--5--5--6--6--6--8---8---8--------|
--------------------------------------------------3--3--3--3--3--3--3--3--4--4--4--6---6---6--------|

Chorus:
Ride with us on the Love Bus. . .

----------------------------------------------------------------------------------------------------|
----------------------------------------------------------------------------------------------------|
----10--10--10-10-10--10-10-------------------------------------------------------------------------|
----10--10--10-10-10--10-10--10----8---8---8---8\---------------------------------------------------|
----8---8---8--8--8---8--8---10----8---8---8---8\---------------------------------------------------|
-----------------------------8-----6---6---6---6\---------------------------------------------------|

Guitar Solo:
Chords

----------------------------------------------------------------------------------------------------|
----------------------------------------------------------------------------------------------------|
----10--10--10-10-10--10-10-------------------------------------------------------------------------|
----10--10--10-10-10--10-10--10----8---8---8---8\---------------------------------------------------|
----8---8---8--8--8---8--8---10----8---8---8---8\---------------------------------------------------|
-----------------------------8-----6---6---6---6\---------------------------------------------------|

Solo goes something like this

----------------------------------------------------------------------------------------------------|
----------------------------------------------------------------------------------------------------|
------------------8---9---10------------------8---9---10------------------8-------------------------|
---8---9---10------------------8---9---10------------------8---9---10-------------------------------|
----------------------------------------------------------------------------------------------------|
----------------------------------------------------------------------------------------------------|

Pre-Chorus:
And when the show is done. . .

----------------------------------------------------------------------------------------------------|
----------------------------------------------------------------------------------------------------|
---6--6--6--6--6--6--6--6--5--5--5--3---3---3-------------------------------------------------------|
---6--6--6--6--6--6--6--6--5--5--5--3---3---3---2--3--3--2--3--3--2--3---2--3--3--2--3--3--2--3-----|
---4--4--4--4--4--4--4--4--3--3--3--1---1---1---2--3--3--2--3--3--2--3---2--3--3--2--3--3--2--3-----|
------------------------------------------------0--1--1--0--1--1--0--1---0--1--1--0--1--1--0--1-----|



----------------------------------------------------------------------------------------------------|
----------------------------------------------------------------------------------------------------|
---6--6--6--6--6--6--6--6--5--5--5--3---3---3-------------------------------------------------------|
---6--6--6--6--6--6--6--6--5--5--5--3---3---3-----5--5--5--5--5--5--5--5--6--6--6--8---8---8--------|
---4--4--4--4--4--4--4--4--3--3--3--1---1---1-----5--5--5--5--5--5--5--5--6--6--6--8---8---8--------|
--------------------------------------------------3--3--3--3--3--3--3--3--4--4--4--6---6---6--------|



Chorus:
Ride with us on the Love Bus. . .

----------------------------------------------------------------------------------------------------|
----------------------------------------------------------------------------------------------------|
----10--10--10-10-10--10-10-------------------------------------------------------------------------|
----10--10--10-10-10--10-10--10----8---8---8---8\---------------------------------------------------|
----8---8---8--8--8---8--8---10----8---8---8---8\---------------------------------------------------|
-----------------------------8-----6---6---6---6\---------------------------------------------------|

Guitar Solo:
Chords

----------------------------------------------------------------------------------------------------|
----------------------------------------------------------------------------------------------------|
----10--10--10-10-10--10-10-------------------------------------------------------------------------|
----10--10--10-10-10--10-10--10----8---8---8---8\---------------------------------------------------|
----8---8---8--8--8---8--8---10----8---8---8---8\---------------------------------------------------|
-----------------------------8-----6---6---6---6\---------------------------------------------------|

End Solo
----------------------------------------------------------------------------------------------------|
----------------------------------------------------------------------------------------------------|
------------------8---9---10------------------8---9---10------------------8---9---10----------------|
---8---9---10------------------8---9---10------------------8---9---10-------------------------------|
----------------------------------------------------------------------------------------------------|
----------------------------------------------------------------------------------------------------|

Outro:
End with

-----------------------            -----------------------|
-----------------------            -----------------------|
-----------------------     OR     ----------10-----------|
-----------3-----------            -----------8-----------|
-----------3-----------            -----------8-----------|
-----------1-----------            -----------------------|


Song Outline:
Intro x 8
Verse (Bass only) x 4
Verse (Guitar) x 4
Pre-Chorus x 1
Chorus x 4
Break x 4
Verse (Bass only) x 4
Verse (Guitar) x 4
Pre-Chorus x 1
Chorus x 4
Solo x 4
Pre-Chorus x 1
Chorus x 4
End Solo x 4
Outro x 1


Symbols:
h: Hammer on
\: Slide down

And that's all! Thanks for viewing!
Добавлено: 06.02.2014
Другие материалы по этой песне:
  • Аккорды и текст

Страница создана 06.02.2014
http://primanota.ru/lords-of-acid/love-bus-chords.htm
Привет, Гость.
Предлагаем пройти революционный курс по гитаре.
Подарок от PrimaNota.Ru, забирай!