PrimaNota.ru - самый крупный в мире бесплатный архив песенных текстов, аккордов, табулатур и нот


Lords Of Acid - Kiss Eternal - аккорды и текст, видео

Регистрация Запомнить меня
Войти через:  Facebook Google Twitter Vk Yandex Mail.ru

Lords Of Acid - Kiss Eternal - аккорды и текст, видео

Печатать
Просмотров: 108
Kiss Eternal
Lords Of Acid
Song: Kiss Eternal
Artist: Lords Of Acid
Album: Farstucker

Tabbed by Kristof Smits

Key: pm =3D palm mute
      r =3D let ring

Note:=20
For the verses: use plenty of distortion and hit 'm hard!
For the chorus: the guitar stays on the background, so don't hit 'm =
hard.=20


("...I'll give you what you desire")
verse 1:
e------------------8r-------
B------------------8r-------
G------------------8r------- =20
D--0-0-0-0-0-0-0---6r-------  =3D> PLAY 4x
A--0-0-0-0-0-0-0------------
E--0-0-0-0-0-0-0------------
  |-----pm------|


("...The world will never be the same without my poison in your vains")
verse 2:
e------------------8r-------
B------------------8r-------
G------------------8r------- =20
D--0-0-0-0-0-0-0---6r-------  =3D> PLAY 3x
A--0-0-0-0-0-0-0------------
E--0-0-0-0-0-0-0------------
  |-----pm------|


pre-chorus:
e-----------------------
B-----------------------
G-----------------------
D--0-0-0-0-0-0----0-0---
A--0-0-0-0-0-0----0-0---
E--0-0-0-0-0-0----0-0---
  |--------pm--------|

chorus:
("...You got to kiss me now...")

e------------------------
B------------------------
G--5--------4------------
D--5-(x8)---2-(x8)-------  =3D> PLAY 3x
A--3--------2------------
E------------------------

the 4th time you play this:
e------------------------
B------------------------
G--5---------------------
D--5-(x8)---3------------ =20
A--3--------3-(x8)-------
E-----------1------------


("...You just don't know how sweet it is to die from a vampire's kiss")
verse 2

chorus:=20
Repeat a few times, listen to the song for the exact number. 
Even if you don't know it, it's easy to play along with the lyrics.

That's the whole song, a good one. 
Maurice would make a good 'Lord Dracula'.


PS: This is 'all my own work'.
     
Добавлено: 16.07.2013
Другие материалы по этой песне:
  • Аккорды и текст

Страница создана 16.07.2013
http://primanota.ru/lords-of-acid/kiss-eternal-chords.htm
Привет, Гость.
Предлагаем пройти революционный курс по гитаре.
Подарок от PrimaNota.Ru, забирай!