PrimaNota.ru - самый крупный в мире бесплатный архив песенных текстов, аккордов, табулатур и нот


Lords Of Acid - Blowing Up Your Mind - текст песни, бас-таба, видео

Регистрация Запомнить меня
Войти через:  Facebook Google Twitter Vk Yandex Mail.ru

Lords Of Acid - Blowing Up Your Mind - текст песни, бас-таба, видео

Печатать
Просмотров: 83
title-blowing up your mind
artist-lords of acid
tabbed by-bobby siegfried
type-bass tablature
send comments, corrections, tabs to: rustyrptle@aol.com
tune down 1/2 step
/=slide up
\=slide down
x=dead hits
h=hammer on

INTRO (finger picked VERY quietly at about 15th or 16th fret)
   8x
G| -------------------- |-----|
D|.--------------------.|-----|
A|.-7--7-7-5-5---------.|-7/--|
E| ------------0-0-0-0- |-----|

VERSE PART 1
   8x
G| ------------------------- |
D|.-------------------------.|
A|.------------7-5----------.|
E| -0--0-0-5-7-----5--5-5-7- |

VERSE PART 2
   2x
G| -------------------------------------------------------- |
D|.-------------------------------------------------7/-19\-.|
A|.-0--x-x-------0--0-0-0-2-3-0--x-x-------0--0-0-0--------.|
E| --------0-0-0---------------------0-0-0----------------- |
   note: the slide up from 7 is played 1st time
	the slide down from 19 is played 2nd time

VERSE PART 3
   2x	
G| ------------------------- |
D|.--------------5----------.|
A|.-0--0-0-5h7-0---5--5-5-7-.|
E| ------------------------- |

VERSE PART 2 1x (with slide from 19)

CHORUS 
   8x
G| --------------------------- |
D|.---------------------------.|
A|.----------7-5--------------.|
E| -0-0-0-0------0-0-0-0--2-3- |

INTRO 8x
VERSE PART 1 8x
VERSE PART 2 2x
VERSE PART 3 2x
VERSE PART 2 1x (with slide from 19)
CHORUS 8x
INTRO 8x
VERSE PART 1 8x
VERSE PART 2 2x
VERSE PART 3 2x
VERSE PART 2 1x (with slide from 19)
CHORUS 8x
Добавлено: 17.03.2012
Другие материалы по этой песне:
  • Аккорды и текст

Страница создана 17.03.2012
http://primanota.ru/lords-of-acid/blowing-up-your-mind-chords.htm
Привет, Гость.
Предлагаем пройти революционный курс по гитаре.
Подарок от PrimaNota.Ru, забирай!