PrimaNota.ru - самый крупный в мире бесплатный архив песенных текстов, аккордов, табулатур и нот


Lords Of Acid - A Treatise On The Practical Methods - аккорды и текст, видео

Регистрация Запомнить меня
Войти через:  Facebook Google Twitter Vk Yandex Mail.ru

Lords Of Acid - A Treatise On The Practical Methods - аккорды и текст, видео

Печатать
Просмотров: 58
A Treatise On The Practical Methods
Lords Of Acid
Song: A treatise on the practical methods whereby one can worship the Lords
Artist: Lords of Acid
Album: Farstucker

Tabbed by Kristof Smits

Key:   b =3D bend
       r =3D let ring out


Main guitar part (chorus)

e---------7b-------------------------------
B---------7b-------------------------------
G---------7b-------------7-7---------------
D--3-3----5b----3-3-3----7-7---------------
A--3-3----------3-3-3----5-5---------------
E--1-1----------1-1-1----------------------

(continued)
e---------7b-------------------------------
B---------7b-------------------------------
G---------7b-------------7-7---------------
D--3-3----5b----3-3-3----7-7---------------
A--3-3----------3-3-3----5-5---------------
E--1-1----------1-1-1----------------------

(continued)
e---------7b-------------------------------
B---------7b-------------------------------
G---------7b-------------7-7---------------
D--3-3----5b----3-3-3----7-7---------------
A--3-3----------3-3-3----5-5---------------
E--1-1----------1-1-1----------------------

(continued)
e---------7b-------------------------------
B---------7b-------------------------------
G---------7b-------------7r----------------
D--3-3----5b----3-3-3----7r----------------
A--3-3----------3-3-3----5r----------------
E--1-1----------1-1-1----------------------



Listen to the song for rythm and timing.

Corrections or more precise tabs welcome at: smitskristof@hotmail.com

PS: This is all 'my own work'.

     
Добавлено: 09.06.2013
Другие материалы по этой песне:
  • Аккорды и текст

Страница создана 09.06.2013
http://primanota.ru/lords-of-acid/a-treatise-on-the-practical-methods-chords.htm
Привет, Гость.
Предлагаем пройти революционный курс по гитаре.
Подарок от PrimaNota.Ru, забирай!