PrimaNota.ru - самый крупный в мире бесплатный архив песенных текстов, аккордов, табулатур и нот


Lordi - They Only Come Out At Night - текст песни, таба, видео

Регистрация Запомнить меня
Войти через:  Facebook Google Twitter Vk Yandex Mail.ru

Lordi - They Only Come Out At Night - текст песни, таба, видео

Печатать
Просмотров: 204
Авторы музыки: Amen
Авторы текста: Mr. Lordi
Tabbed by: Steve (15 years old)

Tuning: Drop D

  Intro - Repeat twice
e|---------------------------------------------------------------------|
B|---------------------------------------------------------------------|
G|---------------------------------------------------------------------|
D|---7-7---7--------3-3---3-------5-3-5-7------------------------------|
A|---7-7---7-[x13]--3-3---3-[x8]--5-3-5-7------------------------------|
D|---7-7---7--------3-3---3-------5-3-5-7------------------------------|
           x              x
 Verse x2
e|---------------------------------------------------------------------|
B|---------------------------------------------------------------------|
G|---------------------------------------------------------------------|
D|---7-7---7--------3-3---3--------------------------------------------|
A|---7-7---7-[x13]--3-3---3-[x13]--------------------------------------|
D|---7-7---7--------3-3---3--------------------------------------------|
           x              x
  Pre-chorus
e|---------------------------------------------------------------------|
B|---------------------------------------------------------------------|
G|---------------------------------------------------------------------|
D|--7-7---7-------3-3---3-------5-5---5-------0-0---0------7--3--2-----|
A|--7-7---7-[x6]--3-3---3-[x6]--5-5---5-[x6]--0-0---0-[x6]-7--3--2-----|
D|--7-7---7-------3-3---3-------5-5---5-------0-0---0------7--3--2-----|
          x             x             x             x
   Chorus
e|---------------------------------------------------------------------|
B|---------------------------------------------------------------------|
G|---------------------------------------------------------------------|
D|--7-5-7--7-5-3--5--------------------------------3--2----------------|
A|--7-5-7--7-5-3--5---Repeat all 3 times then do---3--2----------------|
D|--7-5-7--7-5-3--5--------------------------------3--2----------------|


   little solo after chorus
e|---------------------------------------------------------------------|
B|-----8--8p7--7p6--8-9brbrbr--9brb------------------------------------|
G|---------------------------------------------------------------------|
D|---------------------------------------------------------------------|
A|---------------------------------------------------------------------|
D|---------------------------------------------------------------------|


   Main solo
e|---------------12-13-12h13p12----------------------------------------|
B|---/13------13----------------15-13-15-------------------------------|
G|-------/14------------------------------12-12*-----------------------|
D|---------------------------------------------------------------------|
A|---------------------------------------------------------------------|
D|---------------------------------------------------------------------|

e|------------------12p8h10p8---8------12p8h10p8---8-------------------|
B|---10b--12b-13b-------------10-10-8------------10-10-8---------------|
G|---12b--14b-15b------------------------------------------------------|
D|---------------------------------------------------------------------|
A|---------------------------------------------------------------------|
D|---------------------------------------------------------------------|

e|--13p10h12p10---10-------13p10h12p10---10----------------------------|
B|--------------13--13-10--------------13--13-10---13*-15*-13*---------|
G|-------------------------------------------------------------14*-12*-|
D|---------------------------------------------------------------------|
A|---------------------------------------------------------------------|
D|---------------------------------------------------------------------|


e|---------------------------------------------------------------------|
B|---------------17b---------------------------------------------------|
G|---------------------------------------------------------------------|
D|---14*---12*---------------------------------------------------------|
A|---------------------------------------------------------------------|
E|---------------------------------------------------------------------|

  Bit after quiet part - Repeat 4 times
e|---------------------------------------------------------------------|
B|---------------------------------------------------------------------|
G|---------------------------------------------------------------------|
D|-------3*-2*-1*-0----------------------------------------------------|
A|---0-0------------3-0-5-3--------------------------------------------|
E|---------------------------------------------------------------------|

Order of play:
Intro
Verse
Pre-chorus
Chorus
Intro (with little solo half way through)
Verse
Pre-chorus
Chorus
Main solo
Bit after quiet part
Chorus (fade out)

| /  slide up
| \  slide down
| h  hammer-on
| p  pull-off
| ~  vibrato
| *  harmonic
| x  Mute note
| b  Bend
| r  Release
Добавлено: 30.03.2012
Другие материалы по этой песне:

Страница создана 03.03.2012
http://primanota.ru/lordi/they-only-come-out-at-night-chords.htm
Привет, Гость.
Предлагаем пройти революционный курс по гитаре.
Подарок от PrimaNota.Ru, забирай!