PrimaNota.ru - самый крупный в мире бесплатный архив песенных текстов, аккордов, табулатур и нот


Lordi - The Devil Hides Behind Her Smile - текст песни, таба, бас-таба, видео

Регистрация Запомнить меня
Войти через:  Facebook Google Twitter Vk Yandex Mail.ru

Lordi - The Devil Hides Behind Her Smile - текст песни, таба, бас-таба, видео

Печатать
Просмотров: 167
Song: The Devil Hides Behind Her Smile
Band: Lordi
Tabbed by: unspeakable.elvis@gmail.com

Standard tuning

Legend:
.       palm mute
h       hammer on
p       pull off
/       slide up to note
\       slide down from note
7b9     bend 7th fret major second up
9r7     release previous bend
~       vibrato
(9)     "ghost" note


|---------------------------------|
|---------------------------------|
|----------drums------------------|
|---------------------------------|
|---------------------------------|
|---------------------------------|


"Phantom" Intro
~~~~~~~~~~~~~~~
|---------------------------------|---------------------------------|
|---------------------------------|---------------------------------|
|---------------------------------|---------------------------------|
|---------------------------------|---------------------------------|
|-----9-----9-----9-----9-9-8-7-6-|-----5-----5-----5-----5-5-6-7-8-|
|-7-7-7-7-7-7-7-7-7-7-7-7-7-6-5-4-|-3-3-3-3-3-3-3-3-3-3-3-3-3-4-5-6-|
  . .   . .   . .   . .             . .   . .   . .   . . 
  Play x2

Verse
~~~~~
 "i come home..."
|---------------------------------|---------------------------------|
|---------------------------------|---------------------------------|
|------------rest-----------------|------------rest-----------------|
|-9\------------------------------|---------------------------------|
|-9\------------------------------|---------------------------------|
|-7\------------------------------|---------------------------------|


 "dim lighting, candles burning..."               "have something to hide..."
|---------------------------------|---------------------------------|
|---------------------------------|---------------------------------|
|-----------rest------------------|---------------------------------|
|---------------------------------|---------------------------------|
|---------------------------------|-----------------5-5---7---7---9\|
|---------------------------------|-----------------3-3---5---5---7\|


     "she's a bit too nice this evening..."
|---------------------------------|---------------------------------|
|---------------------------------|---------------------------------|
|---------------------------------|---------------------------------|
|-----4-4-4-4-4-4-2-2-2-2-2-2-2-2-|-------------------------2-2-2-2-|
|(9\)-2-2-2-2-2-2-0-0-0-0-0-0-0-0-|-2-2-2-2-2-2-2-2-5-5-5-5-0-0-0-0-|
|(7\)-----------------------------|-0-0-0-0-0-0-0-0-3-3-3-3---------|
      . . . . . . . . . . . . . .   . . . . . . . . . . . . . . . .
  ^this is to show you're still sliding down
   from the previous measure's last chord

 "i'll skin her...                        "find out what's behind that smile..."
|---------------------------------|---------------------------------|
|---------------------------------|---------------------------------|
|---------------------------------|---------------------------------|
|-4-4-4-4-4-4-4-4-2-2-2-2-2-2-2-2-|-----------------------2---2-----|
|-2-2-2-2-2-2-2-2-0-0-0-0-0-0-0-0-|-2-2-2-2-2-2-2-2-5-5---0---0-----|
|---------------------------------|-0-0-0-0-0-0-0-0-3-3-------------|
  . . . . . . . . . . . . . . . .   . . . . . . . . 


Bridge
~~~~~~
 "it's nothing..."
|---------------------------------|---------------------------------|
|---------------------------------|---------------------------------|
|---------------------------------|---------------------------------|
|-5---5---5---5---5---5---5---5---|-6---6---6---6---6---6---6---6---|
|-3---3---3---3---3---3---3---3---|-4---4---4---4---4---4---4---4---|
|-3---3---3---3---3---3---3---3---|-4---4---4---4---4---4---4---4---|
      .   .       .   .       .         .   .       .   .       .

    "all in my head..."                                "i think the..."
|---------------------------------|---------------------------------|
|---------------------------------|---------------------------------|
|---------------------------------|---------------------------------|
|-5---------------7---------------|-4-------------------------------|
|-5---------------7---------------|-4-----------------4-4-4-4-4-4-4-|
|-3---------------5---------------|-2-----------------2-2-2-2-2-2-2-|
                                                      . . . . . . .


Chorus
~~~~~~
 "devil is hiding behind her smile..."
|---------------------------------|---------------------------------|
|---------------------------------|-----------------------3---------|
|-4----2----------------------2---|-4-----2---------------2-----2---|
|-4----2--------4---5-5-------2---|-4-----2---------5-----0-----2---|
|-2----0--------4---5-5-------0---|-2-----0---------5-----------0---|
|---------------2---3-3-----------|-----------------3---------------|


 "darkness disguised..."
|---------------------------------|---------------------------------|
|---------------------------------|---------------------------------|
|-4----2----------------------2---|-4-----2-------------------------|
|-4----2--------4---5-5-------2---|-4-----2---------5---------------|
|-2----0--------4---5-5-------0---|-2-----0---------5---------------|
|---------------2---3-3-----------|-----------------3---------------|


Back to Intro, Verse, Bridge, after which

Chorus 2
~~~~~~~~
 "devil is hiding behind her smile..."
|---------------------------------|---------------------------------|
|---------------------------------|-----------------------3---------|
|-4----2----------------------2---|-4-----2---------------2-----2---|
|-4----2--------4---5-5-------2---|-4-----2---------5-----0-----2---|
|-2----0--------4---5-5-------0---|-2-----0---------5-----------0---|
|---------------2---3-3-----------|-----------------3---------------|


 "darkness disguised..."
|---------------------------------|-----------------|
|---------------------------------|-----------------|
|-4----2----------------------2---|-4-----2-------7-|Straight into
|-4----2--------4---5-5-------2---|-4-----2-------7-| Interlude
|-2----0--------4---5-5-------0---|-2-----0-------5-|
|---------------2---3-3-----------|-----------------|



Interlude
~~~~~~~~~
|---------------------------------|---------------------------------|
|---------------------------------|---------------------------------|
|---------9-------10--------------|---------9-----------------------| Lead bit
|-12------------------------------|-12--------------11--------------| (lots of reverb)
|---------------------------------|---------------------------------|
|---------------------------------|---------------------------------|
|                                 |                                 |
|                                 |                                 |
|---------------------------------|---------------------------------|
|---------------------------------|---------------------------------|
|(7)------------------------------|---------------------------------| Rhythm bit
|(7)----7-----7---8-----8-----8---|-7-----7-----7---6-----6-----6---|
|(5)--5---5-5---5-5---5---5-5---5-|-5---5---5-5---5-4---4---4-4---4-|
|---------------------------------|---------------------------------|
      .   . .   .     .   . .   .       .   . .   .     .   . .   .


|---------------------------------|---------------------------------|
|---------------------------------|---------------------------------|
|---------9-------10--------------|---------9-----------------------|
|-12------------------------------|-12--------------11--------------|
|---------------------------------|---------------------------------|
|---------------------------------|---------------------------------|
|                                 |                                 |
|                                 |                                 |
|---------------------------------|---------------------------------|
|---------------------------------|---------------------------------|
|---------------------------------|---------------------------------|
|-7-----7-----7---8-----8-----8---|-7-----7-----7---6-----6-----6---|
|-5---5---5-5---5-5---5---5-5---5-|-5---5---5-5---5-4---4---4-4---4-|
|---------------------------------|---------------------------------|
      .   . .   .     .   . .   .       .   . .   .     .   . .   .


|---------------------------------|---------------------------------|
|---------------------------------|---------------------------------|
|-------------------------12------|-------------------------9---10--|
|-10------12------13--12------12--|-9-------10------11--------------|
|---------------------------------|---------------------------------|
|---------------------------------|---------------------------------|
|                                 |                                 |
|                                 |                                 |
|---------------------------------|---------------------------------|
|---------------------------------|---------------------------------|
|-5-------------------------------|-4-------------------------------|
|-5-------------------------------|-4-------------------------------|
|-3-------------------------------|-2-------------------------------|
|---------------------------------|---------------------------------|



|---------------------------------|---------------------------------|
|---------------------------------|---------------------------------|
|-------------------------10------|-------------------------7---9---|
|-8-------10------11--10------10--|-7-------9-------10--------------|
|---------------------------------|---------------------------------|
|---------------------------------|---------------------------------|
|                                 |                                 |
|                                 |                                 |
|---------------------------------|---------------------------------|
|---------------------------------|---------------------------------|
|-3-------------------------------|-2-------------------------------|
|-3-------------------------------|-2-------------------------------|
|-1-------------------------------|-0-------------------------------|
|---------------------------------|---------------------------------|



|---------------------------------|---------------------------------|
|---------------------------------|---------------------------------|
|-8-----7-----9-----8-----7---8---|-8-----7-----10----8-----7-------|
|---------------------------------|---------------------------------|
|---------------------------------|---------------------------------|
|---------------------------------|---------------------------------|
|                                 |                                 |
|                                 |                                 |
|---------------------------------|---------------------------------|
|---------------------------------|---------------------------------|
|---------------------------------|---------------------------------|
|---------------------------------|-3-3---3-3---3-3---3-3---3---3---|
|-6-6---6-6---6-6---6-6---6---6---|-1-1---1-1---1-1---1-1---1---1---|
|-4-4---4-4---4-4---4-4---4---4---|---------------------------------|


                                    "whao..."       "whao..."
|---------------------------------|---------------------------------|
|---------------------------------|---------------------------------|
|-------4-------4-------------4---|---------------------------------|
|---3-4-----3-4-----------3-4-----|-------------9\--------------9\--|
|-2-------2-------------2---------|-------------9\--------------9\--|
|---------------------------------|-------------7\--------------7\--|


  "whao..."       "whao..."         "whao..."       "ooooh..."(?)
|---------------------------------|---------------------------------|
|---------------------------------|---------------------------------|
|---------------------------------|------------------------------4--|
|-------------9\--------------9\--|-------------9\---------------4--|
|-------------9\--------------9\--|-------------9\---------------2--|
|-------------7\--------------7\--|-------------7\------------------|

Back to Chorus, then Intro until the end.
Добавлено: 12.06.2012
Другие материалы по этой песне:
  • Аккорды и текст

Страница создана 15.05.2012
http://primanota.ru/lordi/the-devil-hides-behind-her-smile-chords.htm
Привет, Гость.
Предлагаем пройти революционный курс по гитаре.
Подарок от PrimaNota.Ru, забирай!