PrimaNota.ru - самый крупный в мире бесплатный архив песенных текстов, аккордов, табулатур и нот


Lordi - The Deadite Girls Gone Wild - текст песни, таба, видео

Регистрация Запомнить меня
Войти через:  Facebook Google Twitter Vk Yandex Mail.ru

Lordi - The Deadite Girls Gone Wild - текст песни, таба, видео

Печатать
Просмотров: 152
Авторы музыки: Mr. Lordi
Авторы текста: Mr. Lordi
Song: The Deadite Girls Gone Wild
Band: Lordi
Tabbed by: unspeakable.elvis@gmail.com

Tuning: D Standard (Low to high: D G C F A D)

Legend:

.       palm mute
h       hammer on
p       pull off
/       slide up to note
\       slide down from note
7b9     bend 7th fret major second up
9r7     release previous bend
x       dead note
~       vibrato
[9]     artificial (pinch) harmonic on 9th fret
{7}     natural harmonic on the 7th fret
7b9r7p5 bend 7th fret up, then release bend and pull off to 5th fret.


Intro (w/ Flanger)
~~~~~

|-3-----5-----3-----5-----3---3---|
|-3-----5-----3-----5-----3-5-3-5-|
|---x-x---x-x---x-x---x-x---4---4-| Play
|---------------------------------| x2
|---------------------------------|
|---------------------------------|


Main Riff
~~~~~~~~~

|---------------------------------|
|---------------------------------|
|---------------------------------| Play
|-------2-----------2-------------| x3
|-5-----0-----5-----0-----5-2-5-2-|
|-3-0-0---0-0-3-0-0---0-0-3-0-3-0-|
    . .   . .   . .   . .


|---------------------------------|
|---------------------------------|
|---------------------------------|
|-------2-----------2-------------|
|-5-----0-----5-----0-----5-2-5---|
|-3-0-0---0-0-3-0-0---0-0-3-0-3---|
    . .   . .   . .   . .


Verse (Play x2)
~~~~~
  "she lures you in with intention..." etc.
|---------------------------------|
|---------------------------------|
|---------------------------------| Play x2
|---------------------------------|
|-----------------------2-5-2-5---|
|-0-0-0-0-0-0-0-0-0-0-0-0-3-0-3---|
  . . . . . . . . . . .

 "but it's blood and sticky floors that really turn her on..."
|---------------------------------|---------------------------------|
|-3-------------------------------|---------------------------------|
|-2---------------2---------------|---------------------------------|
|-0---------------2---------------|-------2-----------2-------------|
|-0---------------0---------------|-5-----0-----5-----0-----5-2-5---|
|---------------------------------|-3-0-0---0-0-3-0-0---0-0-3-0-3---|
                                      . .   . .   . .   . .

Pre-Chorus
~~~~~~~~~~
 "she's sanctified by death..."
|---------------------------------|
|-3-------------------------------|
|-2---------------2---------------|
|-0---------------2---------------|
|-0---------------0---------------|
|---------------------------------|

Chorus
~~~~~~
 "hey! stay away..."
|---------------------------------|---------------------------------|
|---------------------------------|---------------------------------|
|---------------------------------|-7---------7---7-5-----5---5---5-| Play
|-2---------2---2-5-----5---5---5-|-7---------7---7-5-----5---5---5-| x2
|-2---------2---2-5-----5---5---5-|-5---5-5-5-5-5-5-3-3-3-3-3-3-3-3-|
|-0---0-0-0-0-0-0-3-3-3-3-3-3-3-3-|---------------------------------|
      . . .   .     . .   .   .         . . .   .     . .   .   .

           "can't you feel the darkness falling..."
|---------------------------------|---------------------------------|
|---------------------------------|---------------------------------|
|---------------------------------|-5---------5---5-7-----7---7---7-|
|-----2-----2---2-5-----5---5---5-|-5---------5---5-7-----7---7---7-|
|-----2-----2---2-5-----5---5---5-|-3---3-3-3-3-3-3-5-5-5-5-5-5-5-5-|
|-0-0-0---0-0-0-0-3-3-3-3-3-3-3-3-|---------------------------------|
  . .     .   .     . .   .   .         . . .   .     . .   .   .

            "can't you head the heavens roaring..."
|---------------------------------|---------------------------------|
|-----------------8-----8---8---8-|---------------------------------|
|-9---------9---9-7-----7---7---7-|-7---------7---7-5-----5---5---5-|
|-9---------9---9-5-5-5-5-5-5-5-5-|-7---------7---7-5-----5---5---5-|
|-7---7-7-7-7-7-7-----------------|-5---5-5-5-5-5-5-3-3-3-3-3-3-3-3-|
|---------------------------------|---------------------------------|
      . . .   .     . .   .   .         . . .   .     . .   .   .


After 1st Chorus
~~~~~~~~~~~~~~~~

Play Main Riff with the following lead:

|-12-------12-------12-------12--------------| Play these
|-15b17r15-15b17r15-15b17r15-15b17~~~--------| bends fast
|--------------------------------------------|
|--------------------------------------------|
|--------------------------------------------|
|--------------------------------------------|

|-15p12-------12p10---------------------------------------|
|-------15p12-------12p10-12p10---------------------------| Simple pentatonic run
|-------------------------------12p9-12p9-----------------|
|-----------------------------------------12p9-/14~~~~~~--|
|---------------------------------------------------------|
|---------------------------------------------------------|


Back to Verse, Pre-Chorus, Chorus, after which:


"Solo"
~~~~~~

|---------------------------------|---------------------------------|
|-12----10------------------------|---------------------------------|
|-------------12----11~~~---------|-----------12~~~-----------------| Harmony
|---------------------------------|-12----14------------------------|
|---------------------------------|---------------------------------|
|---------------------------------|---------------------------------|
|                                 |                                 |
|                                 |                                 |
|---------------------------------|---------------------------------|
|---------------------------------|---------------------------------|
|-12----11------------------------|---------------------------------| Lead
|------------/14----12~~~---------|------/12--14~~~-----------------|
|---------------------------------|/14------------------------------|
|---------------------------------|---------------------------------|

|---------------------------------|---------------------------------|
|/12----10---/13----12----10--12--|---------------------------------|
|---------------------------------|-12~~~~--------------------------| Harmony
|---------------------------------|---------------------------------|
|---------------------------------|---------------------------------|
|---------------------------------|---------------------------------|
|                                 |                                 |
|                                 |                                 |
|---------------------------------|---------------------------------|
|---------------------------------|---------------------------------|
|/12----11---/14----12----11--12--|---------------------------------| Lead
|---------------------------------|-14~~~~--------------------------|
|---------------------------------|---------------------------------|
|---------------------------------|---------------------------------|

Rhythm underneath lead + harmony (Play twice)
|---------------------------------|---------------------------------|
|---------------------------------|---------------------------------|
|-7---x-9---x-7---x-7---x-5---7---|-7---x-9---x-7---x-7---x-5---7---|
|-5---x-7---x-4---x-5---x-2---4---|-5---x-7---x-4---x-5---x-2---4---|
|-5---x-7---x-5---x-5---x-3---5---|-5---x-7---x-5---x-5---x-3---5---|
|---------------------------------|---------------------------------|
  These are weird chord shapes, probably not what Amen uses, but they
  sound good to me.


After "Solo"
~~~~~~~~~~~~

 "no don't thank heaven for little girls..."
|---------------------------------|---------------------------------|
|---------------------------------|---------------------------------|
|---------------------------------|-7---x-9---x-7---x-7---x-5---7---| Play
|---------------------------------|-5---x-7---x-4---x-5---x-2---4---| x2
|-3-3-3-3-3-3-3-3-3-3-3-3-3-3-3-3-|-5---x-7---x-5---x-5---x-3---5---|
|---------------------------------|---------------------------------|


 "you wanna put it..."
|---------------------------------|---------------------1h0---------|
|-3----------------------------{5}|-------------------------3---1---|
|-2---2---2---2---2---------{5}---|---------------------------------| Guitar
|-0---0---0---0---0------{5}------|---------------------------------| Right
|---------------------{5}---------|---------------------------------|
|---------------------------------|---------------------------------|
|     .   .   .   .    ^natural harmonics                           |
|                                 |                                 |
|---------------------------------|---------------------------------|
|-3-------------------------------|---------------------------------|
|-2-------------------------------|-5-------------------------------| Guitar
|-0-------------------------------|-5-------------------------------| Left
|-0-------------------------------|-3-------------------------------|
|---------------------------------|---------------------------------|


 "you're gonna lose it..."
|---------------------------------|---------------------------------|
|-3----------------------------{5}|---------------------------------|
|-2---2---2---2---2---------{5}---|---------------------------------| Guitar
|-0---0---0---0---0------{5}------|---------------------------------| Right
|---------------------{5}---------|---------------------------------|
|---------------------------------|---------------------------------|
|     .   .   .   .               |                                 |
|                                 |                                 |
|---------------------------------|---------------------------------|
|-3-------------------------------|---------------------------------|
|-2-------------------------------|-5-------------------------------| Guitar
|-0-------------------------------|-5-------------------------------| Left
|-0-------------------------------|-3-------------------------------|
|---------------------------------|---------------------------------|


 "she'll suck  -  you    -    -     dry...."
|---------------------------------|---------------------------------|
|-5---------------3---------------|---------------------------------|
|-4---------------2---------------|-5---------------4---------------|
|-2---------------0---------------|-5---------------4---------------|
|-2---------------0---------------|-3---------------2---------------|
|---------------------------------|---------------------------------|


Back to Main Riff, and then Chorus, after which:


Outro
~~~~~
                                    Let ring
|---------------------------------|---------------------------------|
|---------------------------------|---------------------------------|
|-7---x-9---x-7---x-7---x-5---7---|---------------------------------|
|-5---x-7---x-4---x-5---x-2---4---|-2-------------------------------|
|-5---x-7---x-5---x-5---x-3---5---|-2-------------------------------|
|---------------------------------|-0-------------------------------|

|---------------------------------|
|---------------------------------|
|---------------------------------|
|-2-------------------------------|  End!
|-2-------------------------------|
|-0-------------------------------|
Добавлено: 13.03.2012
Другие материалы по этой песне:
  • Аккорды и текст

Страница создана 13.03.2012
http://primanota.ru/lordi/the-deadite-girls-gone-wild-chords.htm
Привет, Гость.
Предлагаем пройти революционный курс по гитаре.
Подарок от PrimaNota.Ru, забирай!