PrimaNota.ru - самый крупный в мире бесплатный архив песенных текстов, аккордов, табулатур и нот


Lordi - The Chainsaw Buffet - текст песни, таба, видео

Регистрация Запомнить меня
Войти через:  Facebook Google Twitter Vk Yandex Mail.ru

Lordi - The Chainsaw Buffet - текст песни, таба, видео

Печатать
Просмотров: 105
Авторы музыки: Mr. Lordi
Авторы текста: Mr. Lordi
-----------------------------------------------------------------------
		      The Chainsaw Buffet - Lordi
-----------------------------------------------------------------------
Tabbed by: Chris Rude
Email: stephanierude@sbcglobal.net

Tuning:DADGBe

This is my first transcription. Great song, hope you enjoy! Any questions just e-mail me.

e|--------------------------------------------------------------------|
B|--------------------------------------------------------------------|
G|14-14-14-14-14-14-14-14-14-14-14-14-14-14-14-14-14-14-14-14-14-14---|
D|--------------------------------------------------------------------|
A|--------------------------------------------------------------------|
D|--------------------------------------------------------------------|

       pm
      |--|                                                          X2
e|--------------------------------------------------------------------|
B|--------------------------------------------------------------------|
G|--------------------------------------------------------------------|
D|-----------2------5-5-------7-7-----5---2---------------------------|
A|---5-55----0------3-3-------5-5-----3---0---------------------------|
D|---5-55-------------------------------------------------------------|


                           X7
e|--------17-----------------|      The first note of this riff only
B|--------------17----16-13--|      is played when you play the riff
G|-14--14----14----14--------|      the first time. 
D|---------------------------|
A|---------------------------|
D|---------------------------|



e|----17--------------------------------------------------------------|
B|----------17-16-13--------------------------------------------------|
G|-14----14-----------------------------------------------------------|
D|--------------------------------------------------------------------|
A|------------------------0----0-3-5-6-5~~~---------------------------|
D|--------------------------5-----------------------------------------|

                              NH
  |---------------------------------------------------------|
e|--------------------------------------------------------------------|
B|--------------------------------------------------------------------|
G|---------------------------------5-5-5-5--------------------3~------|
D|-----------------------------------------5-5-5-5------------3~------|
A|-5-5-5-5-5-5-5-5-7-7-7-7-7-7-7-7-----------------5-5-5-5-5----------|
D|--------------------------------------------------------------------|

   “You've got your invitation...”


                              NH
  |---------------------------------------------------------|
e|--------------------------------------------------------------------|
B|--------------------------------------------------------------------|
G|---------------------------------5-5-5-5--------------------3~------|
D|-----------------------------------------5-5-5-5------------3~------|
A|-5-5-5-5-5-5-5-5-7-7-7-7-7-7-7-7-----------------5-5-5-5-5----------|
D|--------------------------------------------------------------------|

   “No need for hesitation...”

       pm              pm                                pm
      |---|           |---|                           |-------|
e|--------------------------------------------------------------------|
B|--------------------------------------------------------------------|
G|--------------------------------------------------------------------|
D|--------------------------------------------------------------------|
A|--5--5-5--5--5-5--7--7-7--7--7-7--3--3-3--5--5-5--7--7-7-7-7--------|
D|--5--5-5--5--5-5--7--7-7--7--7-7--3--3-3--5--5-5--7--7-7-7-7--------|
  
   “The steaks ala carte...”

                                      pm      pm
                                     |---|   |---|   
e|--------------------------------------------------------------------|
B|--------------------------------------------------------------------|
G|--------------------------------------------------------------------|
D|--------------------------------------------------------------------|
A|--7-7-7--3--3-3--5--5-5--7--7-7--9--9-9--9--9-9--9--5-5-5-5---------|
D|--7-7-7--3--3-3--5--5-5--7--7-7--9--9-9--9--9-9--9--5-5-5-5---------|

   “Jammed eyes, bleeding herbs...”


                                                                    X2
e|--------------------------------------------------------------------|
B|--------------------------------------------------------------------|
G|--------------------------------------------------------------------|
D|--------------------------------------------------------------------|
A|--7--3--5--5-5--7--7-7--3--3-3--5--5-5--7---3-5---------------------|
D|--7--3--5--5-5--7--7-7--3--3-3--5--5-5--7---3-5---------------------|

   “At the chainsaw, chainsaw buffet...”



e|--------------------------------------------------------------------|
B|--------------------------------------------------------------------|
G|--------------------------------------------------------------------|
D|--------------------------------------------------------------------|
A|-----------3--5------3----------------------------------------------|
D|-----------3--5------3----------------------------------------------|

    “At the chainsaw.........chainsaw buffet!!!”





                           X7
e|--------17-----------------|      The first note of this riff only
B|--------------17----16-13--|      is played when you play the riff
G|-14--14----14----14--------|      the first time. 
D|---------------------------|
A|---------------------------|
D|---------------------------|



e|----17--------------------------------------------------------------|
B|----------17-16-13--------------------------------------------------|
G|-14----14-----------------------------------------------------------|
D|--------------------------------------------------------------------|
A|------------------------0----0-3-5-6-5~~~---------------------------|
D|--------------------------5-----------------------------------------|

                              NH
  |---------------------------------------------------------|
e|--------------------------------------------------------------------|
B|--------------------------------------------------------------------|
G|---------------------------------5-5-5-5--------------------3~------|
D|-----------------------------------------5-5-5-5------------3~------|
A|-5-5-5-5-5-5-5-5-7-7-7-7-7-7-7-7-----------------5-5-5-5-5----------|
D|--------------------------------------------------------------------|

   “Mama said that you were...”


                             NH
  |---------------------------------------------------------|
e|--------------------------------------------------------------------|
B|--------------------------------------------------------------------|
G|---------------------------------5-5-5-5--------------------3~------|
D|-----------------------------------------5-5-5-5------------3~------|
A|-5-5-5-5-5-5-5-5-7-7-7-7-7-7-7-7-----------------5-5-5-5-5----------|
D|--------------------------------------------------------------------|

   “Nice day for a picnic...”



       pm              pm                                pm
      |---|           |---|                           |-------|
e|--------------------------------------------------------------------|
B|--------------------------------------------------------------------|
G|--------------------------------------------------------------------|
D|--------------------------------------------------------------------|
A|--5--5-5--5--5-5--7--7-7--7--7-7--3--3-3--5--5-5--7--7-7-7-7--------|
D|--5--5-5--5--5-5--7--7-7--7--7-7--3--3-3--5--5-5--7--7-7-7-7--------|
  
   “The steaks ala carte...”

                                    

                                      pm      pm
                                     |---|   |---|   
e|--------------------------------------------------------------------|
B|--------------------------------------------------------------------|
G|--------------------------------------------------------------------|
D|--------------------------------------------------------------------|
A|--7-7-7--3--3-3--5--5-5--7--7-7--9--9-9--9--9-9--9--5-5-5-5---------|
D|--7-7-7--3--3-3--5--5-5--7--7-7--9--9-9--9--9-9--9--5-5-5-5---------|

   “Jammed eyes, bleeding herbs...”


                                                                    X2
e|--------------------------------------------------------------------|
B|--------------------------------------------------------------------|
G|--------------------------------------------------------------------|
D|--------------------------------------------------------------------|
A|--7--3--5--5-5--7--7-7--3--3-3--5--5-5--7---3-5---------------------|
D|--7--3--5--5-5--7--7-7--3--3-3--5--5-5--7---3-5---------------------|

   “At the chainsaw, chainsaw buffet...”




e|--------------------------------------------------------------------|
B|--------------------------------------------------------------------|
G|--------------------------------------------------------------------|
D|--------------------------------------------------------------------|
A|-----------3--5-----------------------------------------------------|
D|-----------3--5-----7\----------------------------------------------|

    “At the chainsaw...”



e|--------------------------------------------------------------------|
B|--------------------------------------------------------------------|
G|14-14-14-14-14-14-14-14-14-14-14-14-14-14-14-14-14-14-14-14-14-14---|
D|--------------------------------------------------------------------|
A|--------------------------------------------------------------------|
D|--------------------------------------------------------------------|

       pm
      |--|                                                          X2
e|--------------------------------------------------------------------|
B|--------------------------------------------------------------------|
G|--------------------------------------------------------------------|
D|-----------2------5-5-------7-7-----5---2---------------------------|
A|---5-55----0------3-3-------5-5-----3---0---------------------------|
D|---5-55-------------------------------------------------------------|




NOT SURE ABOUT THE SOLO SECTION

 
“At the chainsaw, chainsaw buffet, the secret ingredient screams,”
 


e|--------------------------------------------------------------------|
B|--------------------------------------------------------------------|
G|--------------------------------------------------------------------|
D|--------------------------------------------------------------------|
A|---3----5-------------------------------------X\\\\\\\\\\\\\\\\\\\\-|
D|---3----5—-7\---------------------------------X\\\\\\\\\\\\\\\\\\\\-|

  “You're my main course at the chainsaw buffet; feed on man eater's...”



                                                                    X4
e|--------------------------------------------------------------------|
B|--------------------------------------------------------------------|
G|--------------------------------------------------------------------|
D|--------------------------------------------------------------------|
A|-10--6--8--8-8—-10--10-10--6--6-6—-8--8-8--10--6-8------------------|
D|-10--6--8--8-8--10--10-10--6--6-6--8--8-8--10--6-8------------------|

   “At the chainsaw, chainsaw buffet...”




e|--------------------------------------------------------------------|
B|--------------------------------------------------------------------|
G|--------------------------------------------------------------------|
D|--------------------------------------------------------------------|
A|---6---8-----5--------5\--------------------------------------------|
D|---6---8-----5--------5\--------------------------------------------|




That's it =]





NH---natural harmonics
pm---palm mute
X\\\---pick slide
\----slide down
Добавлено: 21.09.2013
Другие материалы по этой песне:

Страница создана 16.04.2012
http://primanota.ru/lordi/the-chainsaw-buffet-chords.htm
Привет, Гость.
Предлагаем пройти революционный курс по гитаре.
Подарок от PrimaNota.Ru, забирай!