PrimaNota.ru - самый крупный в мире бесплатный архив песенных текстов, аккордов, табулатур и нот


Lordi - Night Of The Loving Dead - текст песни, таба, бас-таба, видео

Регистрация Запомнить меня
Войти через:  Facebook Google Twitter Vk Yandex Mail.ru

Lordi - Night Of The Loving Dead - текст песни, таба, бас-таба, видео

Печатать
Просмотров: 273
Уроки эстрадного вокала в Санкт-Петербурге
Авторы музыки: Mr. Lordi
Авторы текста: Mr. Lordi
Hello :) this is my first tab im submitting, it seems pretty good to me :P but let me 
what you think (rockerman180@hotmail.com). I made this in guitar pro so iv submitted that 
dunno if the bass in it is correct but i put in what i think sounds good :)

               E  S S E  S S E  S E  S E     E  S S E  S S E  S S S   E.
E||-------||------------------------------|-------------------------------|
B||-------||---------------------------6--|--L--x-x-6--x-x-8--x-x-8s-10---|
G||-------||*--2--x-x-2--x-x-5--x-5--x-5--|--L--x-x-5--x-x-7--x-x-7s--9---|
D||-------||*--2--x-x-2--x-x-5--x-5--x----|-------------------------------|
A||-------||------------------------------|-------------------------------|
D||-------||------------------------------|-------------------------------|


  E  S S E  S S E  S E  S E     E  S S E  S S S  S  S E.  E   4x
-----------------------------|--------------------------------||
--------------------------6--|--L--x-x-6--x-x-----------------||
--2--x-x-2--x-x-5--x-5--x-5--|--L--x-x-5--x-x-5s-4s-2-0---2--*||
--2--x-x-2--x-x-5--x-5--x----|----------------5s-4s-2-0---2--*||
-----------------------------|--------------------------------||
-----------------------------|--------------------------------||


  W                   W                   H        H
-------------------|-------------------|--------------------|
-------------------|-------------------|--------------------|
-------------------|-------------------|-----------7--------|
--2----------------|--3----------------|--5--------7--------|
--2----------------|--3----------------|--5--------5--------|
--2----------------|--3----------------|--5-----------------|


  PM PM PM PM
  E  E  E  E  Q    Q        Q    E  E  E  E  Q       E  E  E  E  E  E  Q
-------------------------|------------------------|-------------------------|
-------------------------|------------------------|-------------------------|
-------------------7\----|------------------------|-------------------------|
--7--7--7--7--7----7\----|--7----5--3--5--3--7----|--2--3-----2--3-----5----|
--7--7--7--7--7----------|--7----5--3--5--3--7----|--2--3-----2--3-----5----|
--7--7--7--7--7----------|--7----5--3--5--3--7----|--2--3-----2--3-----5----|


  PM PM    PM                PM PM    PM
  E  E  E  E  E  E  E  E     E  E  E  E  E  E  Q       Q    E  E  E  E  Q
--------------------------|-------------------------|------------------------|
--------------------------|-------------------------|------------------------|
--------------------------|-------------------------|------------------------|
--------------------------|-------------------------|--7----5--3--5--3--7----|
--------3-----3--2--0-----|--------2-----2--3--5----|--7----5--3--5--3--7----|
--3--3-----3-----------5--|--5--5-----5-------------|--7----5--3--5--3--7----|


                            PM PM    PM
  E  E  E  E  E  E  Q       E  E  E  E  E  E  E  E     W
-------------------------|--------------------------|-------------------|
-------------------------|--------------------------|-------------------|
-------------------------|--------------------------|-------------------|
--2--3-----2--3-----5----|--------------------------|--5----------------|
--2--3-----2--3-----5----|--------3-----3--2--0-----|--5----------------|
--2--3-----2--3-----5----|--3--3-----3-----------5--|--5----------------|


    E  S S E  S S E  S E  S E     E  S S E  S S E  S S S   E.
|------------------------------|-------------------------------|
|---------------------------6--|--L--x-x-6--x-x-8--x-x-8s-10---|
|*--2--x-x-2--x-x-5--x-5--x-5--|--L--x-x-5--x-x-7--x-x-7s--9---|
|*--2--x-x-2--x-x-5--x-5--x----|-------------------------------|
|------------------------------|-------------------------------|
|------------------------------|-------------------------------|


  E  S S E  S S E  S E  S E     E  S S E  S S S  S  S E.  E   3x
-----------------------------|--------------------------------||
--------------------------6--|--L--x-x-6--x-x-----------------||
--2--x-x-2--x-x-5--x-5--x-5--|--L--x-x-5--x-x-5s-4s-2-0---2--*||
--2--x-x-2--x-x-5--x-5--x----|----------------5s-4s-2-0---2--*||
-----------------------------|--------------------------------||
-----------------------------|--------------------------------||


  W                   W                   H        H
-------------------|-------------------|--------------------|
-------------------|-------------------|--------------------|
-------------------|-------------------|-----------7--------|
--2----------------|--3----------------|--5--------7--------|
--2----------------|--3----------------|--5--------5--------|
--2----------------|--3----------------|--5-----------------|


  PM PM PM PM
  E  E  E  E  Q    Q        Q    E  E  E  E  Q       E  E  E  E  E  E  Q
-------------------------|------------------------|-------------------------|
-------------------------|------------------------|-------------------------|
-------------------7\----|------------------------|-------------------------|
--7--7--7--7--7----7\----|--7----5--3--5--3--7----|--2--3-----2--3-----5----|
--7--7--7--7--7----------|--7----5--3--5--3--7----|--2--3-----2--3-----5----|
--7--7--7--7--7----------|--7----5--3--5--3--7----|--2--3-----2--3-----5----|


  PM PM    PM                PM PM    PM
  E  E  E  E  E  E  E  E     E  E  E  E  E  E  Q       Q    E  E  E  E  Q
--------------------------|-------------------------|------------------------|
--------------------------|-------------------------|------------------------|
--------------------------|-------------------------|------------------------|
--------------------------|-------------------------|--7----5--3--5--3--7----|
--------3-----3--2--0-----|--------2-----2--3--5----|--7----5--3--5--3--7----|
--3--3-----3-----------5--|--5--5-----5-------------|--7----5--3--5--3--7----|


                            PM PM    PM
  E  E  E  E  E  E  Q       E  E  E  E  E  E  E  E     W
-------------------------|--------------------------|-------------------|
-------------------------|--------------------------|-------------------|
-------------------------|--------------------------|-------------------|
--2--3-----2--3-----5----|--------------------------|--5----------------|
--2--3-----2--3-----5----|--------3-----3--2--0-----|--5----------------|
--2--3-----2--3-----5----|--3--3-----3-----------5--|--5----------------|


  W                   W                   E  E  H.
-------------------|-------------------|---------------------|
-------------------|-------------------|---------------------|
-------------------|-------------------|---------------------|
--2----------------|--L----------------|--2--3--3------------|
--2----------------|--L----------------|--2--3--3------------|
--2----------------|--L----------------|--------3------------|


  W                   W                   W                   W
-------------------|-------------------|-------------------|-------------------|
-------------------|-------------------|-------------------|-------------------|
-------------------|-------------------|-------------------|-------------------|
--L----------------|--L----------------|--5----------------|--7----------------|
--L----------------|--L----------------|--5----------------|--7----------------|
--L----------------|--L----------------|--5----------------|--7----------------|

Rythem guitar behind solo:
{
   E  S S E  S S E  S E  S E     E  S S E  S S E  S S S   E.
|------------------------------|-------------------------------|
|---------------------------6--|--L--x-x-6--x-x-8--x-x-8s-10---|
|---2--x-x-2--x-x-5--x-5--x-5--|--L--x-x-5--x-x-7--x-x-7s--9---|
|---2--x-x-2--x-x-5--x-5--x----|-------------------------------|
|------------------------------|-------------------------------|
|------------------------------|-------------------------------|


  E  S S E  S S E  S E  S E     E  S S E  S S S  S  S E.  E
-----------------------------|--------------------------------||
--------------------------6--|--L--x-x-6--x-x-----------------||
--2--x-x-2--x-x-5--x-5--x-5--|--L--x-x-5--x-x-5s-4s-2-0---2---||
--2--x-x-2--x-x-5--x-5--x----|----------------5s-4s-2-0---2---||
-----------------------------|--------------------------------||
-----------------------------|--------------------------------||


  W                   W                   H        H
-------------------|-------------------|--------------------|
-------------------|-------------------|--------------------|
-------------------|-------------------|-----------7--------|
--2----------------|--3----------------|--5--------7--------|
--2----------------|--3----------------|--5--------5--------|
--2----------------|--3----------------|--5-----------------|

  PM PM PM PM
  E  E  E  E  Q    Q
-------------------------|
-------------------------|
-------------------7\----|
--7--7--7--7--7----7\----|
--7--7--7--7--7----------|
--7--7--7--7--7----------|

}
They use some kanda effect here that i dunno, but this sounds almost the same and can be 
with the same timing.
   E    E    E    E    E    E    Q
---------------------------------------|
---------------------------------------|
---------------------------------------|
--12b--12b--12b--12b--12b--12b--12b----|
---------------------------------------|
---------------------------------------|


   S  S  S  S  S  S  S  S  S  S  S   S  S   S  E
--------------------------------------------------|
--------------------------------------------------|
--14-14-14-12-12-12-------------------------------|
--------------------14-14-14-12-14p-12-14p-12-10--|
--------------------------------------------------|
--------------------------------------------------|


   S  S  S  S  S  S  S  S  S  S  S   S  S   S  E
--------------------------------------------------|
--------------------------------------------------|
--14-14-14-12-12-12-------------------------------|
--------------------14-14-14-12-14p-12-14p-12-14--|
--------------------------------------------------|
--------------------------------------------------|


  E   S  S  S  S  S  S  S  S  S  S  S   S  S   S     H         S   S  S E.  E
-------------------------------------------------|-----------------------------|
-------------------------------------------------|-----------------------------|
-----17-17-17-14-14-14-12-12-12-12-14p-12-14p-12-|--14--------12p-11s-9-7---9--|
--L----------------------------------------------|-----------------------------|
-------------------------------------------------|-----------------------------|
-------------------------------------------------|-----------------------------|


   Q      Q       Q        E   E        E   E   Q      H
------------------------------15br--|---L--12---------------------|
--15b----15pb----15pbr----13--------|----------15b----15pb--------|
------------------------------------|-----------------------------|
------------------------------------|-----------------------------|
------------------------------------|-----------------------------|
------------------------------------|-----------------------------|


   Q      E   Q        E   E    E
-----------------------------------|
---------15------------------------|
--14b--------14pbr----12--14p--12--|
-----------------------------------|
-----------------------------------|
-----------------------------------|


   S  S   S  S  S   S  S  S   S  S  E  Q          Q    E  E  E  E  Q
-----15p-12----15p-12----15p-12----15--------||-------------------------|
--12--------12--------12--------12-----------||-------------------------|
---------------------------------------7\----||*------------------------|
---------------------------------------7\----||*--7----5--3--5--3--7----|
---------------------------------------------||---7----5--3--5--3--7----|
---------------------------------------------||---7----5--3--5--3--7----|


                            PM PM    PM
  E  E  E  E  E  E  Q       E  E  E  E  E  E  E  E
-------------------------|--------------------------|
-------------------------|--------------------------|
-------------------------|--------------------------|
--2--3-----2--3-----5----|--------------------------|
--2--3-----2--3-----5----|--------3-----3--2--0-----|
--2--3-----2--3-----5----|--3--3-----3-----------5--|


  PM PM    PM
  E  E  E  E  E  E  Q     3x  Q    E  E  E  E  Q       E  E  E  E  E  E  Q
--------------------------||------------------------|-------------------------|
--------------------------||------------------------|-------------------------|
-------------------------*||------------------------|-------------------------|
-------------------------*||--7----5--3--5--3--7----|--2--3-----2--3-----5----|
--------2-----2--3--5-----||--7----5--3--5--3--7----|--2--3-----2--3-----5----|
--5--5-----5--------------||--7----5--3--5--3--7----|--2--3-----2--3-----5----|


  PM PM    PM
  E  E  E  E  E  E  E  E     W                   E  S S E  S S E  S E  S E
--------------------------|-------------------|-----------------------------|
--------------------------|-------------------|--------------------------6--|
--------------------------|-------------------|--2--x-x-2--x-x-5--x-5--x-5--|
--------------------------|--5----------------|--2--x-x-2--x-x-5--x-5--x----|
--------3-----3--2--0-----|--5----------------|-----------------------------|
--3--3-----3-----------5--|--5----------------|-----------------------------|


  E  S S E  S S E  S S S   E.     E  S S E  S S E  S E  S E
-------------------------------|-----------------------------|
--L--x-x-6--x-x-8--x-x-8s-10---|--------------------------6--|
--L--x-x-5--x-x-7--x-x-7s--9---|--2--x-x-2--x-x-5--x-5--x-5--|
-------------------------------|--2--x-x-2--x-x-5--x-5--x----|
-------------------------------|-----------------------------|
-------------------------------|-----------------------------|


  E  S S E  S S S  S  S E.  E     S  S  S E.  E  S  S  S E.  E
-------------------------------|--------------------------------|
--L--x-x-6--x-x----------------|--------------------------------|
--L--x-x-5--x-x-5s-4s-2-0---2--|--5s-4s-2-0---2--5s-4s-2-0---2--|
----------------5s-4s-2-0---2--|--5s-4s-2-0---2--5s-4s-2-0---2--|
-------------------------------|--------------------------------|
-------------------------------|--------------------------------|


  W
-------------------||
-------------------||
--2----------------||
--2----------------||
-------------------||
-------------------||


Duration Legend
---------------
W - whole
H - half
Q - quarter
E - 8th
S - 16th
T - 32nd
X - 64th
. - note dotted
|-n-|  - n-tuplets


Tablature Legend
----------------
L - tied note
x - dead note
g - grace note
(n) - ghost note
> - accentuded note
NH - natural harmonic
AH - artificial harmonic
TH - tapped harmonic
SH - semi harmonic
PH - pitch harmonic
h - hammer on
p - pull off
b - bend
br - bendRelease
pb - preBend
pbr - preBendRelease
brb - bendReleaseBend
\n/ - tremolo bar dip
\n - tremolo bar dive
-/n - tremolo bar Release up
/n\ - tremolo bar inverted dip
/n - tremolo bar return
-\n - tremolo bar Release down
S - shift slide
s - legato slide
/ -  slide into from below or out of upwards
\ -  slide into from above or out of downwards
~ - vibrato
W - wide vibrato
tr - trill
TP - tremolo picking
T - tapping
S - slap
P - pop
< - fade in
^ - brush up
v - brush down
Добавлено: 22.07.2012
Другие материалы по этой песне:

Страница создана 25.02.2012
http://primanota.ru/lordi/night-of-the-loving-dead-chords.htm
Привет, Гость.
Предлагаем пройти революционный курс по гитаре.
Подарок от PrimaNota.Ru, забирай!