PrimaNota.ru - самый крупный в мире бесплатный архив песенных текстов, аккордов, табулатур и нот


Lordi - Man Skin Boots - текст песни, таба, видео

Регистрация Запомнить меня
Войти через:  Facebook Google Twitter Vk Yandex Mail.ru

Lordi - Man Skin Boots - текст песни, таба, видео

Печатать
Просмотров: 184
Song: Man Skin Boots
Band: Lordi
Tabbed by: unspeakable.elvis@gmail.com

Standard Tuning

Legend:
.       palm mute
h       hammer on
p       pull off
/       slide up to note
\       slide down from note
7b9     bend 7th fret major second up
9r7     release previous bend
~       vibrato
(n)     ghost note


Intro
~~~~~

|-------------------------------------------------|
|-------------------------------------------------|
|-2--1--0--2--1--0--2--1--0--2--1--0--2--1--0-----|
|-2--1--0--2--1--0--2--1--0--2--1--0--2--1--0-----|
|-------------------------------------------------|
|-------------------------------------------------|


|-------------------------------------------------|
|-------------------------------------------------|
|-2--1--0--2--1--0--2--1--0--2--1--0--2--1-----0--|
|-2--1--0--2--1--0--2--1--0--2--1--0--2--1-----0--|
|-------------------------------------------------|
|-------------------------------------------------|



Verse
~~~~~

 "take a step back..."
|-------------------------------------------------|
|-------------------------------------------------|
|-2-----------------------------------------------|
|-2-----------------------------------------------|
|-0-----------------------------------------------|
|-------------------------------------------------|


 "beware what you're saying..."
|-------------------------------------------------|
|-------------------------------------------------|
|----------------------------------------------0--|
|-------------------------5--7-----8-----5--7\-0--|
|-------------------------3--5-----6--------------|
|-------------------------------------------------|


 "you're like a frog in the road..."
|-------------------------------------------------|
|-------------------------------------------------|
|-2-----------------------------------------------|
|-2-----------------------------------------------|
|-0-----------------------------------------------|
|-------------------------------------------------|


 "studded tired are flaying...
|-------------------------------------------------|
|-------------------------------------------------|
|-------------------------------------------------|
|-------------------------5--7-----8-----5--7\----|
|-------------------------3--5-----6--------------|
|-------------------------------------------------|



Bridge
~~~~~~

 "you tried it with a knife and rope..."      "dy-"
|-------------------------------------------------|
|-------------------------------------------------|
|-------------------------------------------------|
|-7--7--7--7--5--5--5--5--4--4--4--4--------------|
|-5--5--5--5--3--3--3--3--2--2--2--2--3-----5--7--|
|-------------------------------------1-----3--5--|
  .  .  .  .  .  .  .  .  .  .  .  .

"na-mite..."
|-------------------------------------------------|
|-------------------------------------------------|
|-------5-----5--7--5-----5--7--5-----------------|
|-------5-----5--7--5--7--5--7--5--7-----3--------|
|(7)-7-----------------7-----------7-----3--------|
|(5)-5--------------------------------------------|
  ^ ghost notes not actually played, intended to show that
    the chord is being held from the previous measure.

 "you tried it by cutting the wires..."
|-------------------------------------------------|
|-------------------------------------------------|
|-------------------------------------------------|
|-7--7--7--7--5--5--5--5--4--4--4--4--------------|
|-5--5--5--5--3--3--3--3--2--2--2--2--3-----5--7--|
|-------------------------------------1-----3--5--|
  .  .  .  .  .  .  .  .  .  .  .  .

 "she's so out of your league...       she wears..."
|-------------------------------------------------|
|-------------------------------------------------|
|-------------------------------------------------|
|-------------------------------------------------|
|(7)-7--7--7--3-----3--5--------------5-----5-----|
|(5)-5--5--5--1-----1--3--------------3--3--3-----|
                
                         .

Chorus Pt. 1
~~~~~~~~~~~~

 "man skin boots, no she's not gonna please you..."
|-------------------------------------------------|
|-------------------------3--3-----3--------3-----|
|-2--2-----2--------2-----2--2-----2--------2-----|
|-2--2--2--2--2--2--2--2--0--0--0--0--0--0--0--0--|
|-0--0--0--0--0--0--0--0--0--0--0--0--0--0--0--0--|
|-------------------------------------------------|
        .     .  .     .        .     .  .     .

 "not gonna tease you..."
|-------------------------------------------------|
|-------------------------------------------------|
|-------------------------------------------------|
|-3--3-----3--------3-----5-----5-----5-----5-----|
|-3--3--3--3--3--3--3--3--5--5--5--5--5--5--5-----|
|-1--1--1--1--1--1--1--1--3--3--3--3--3--3--3-----|
        .     .  .     .     .     .     .



Chorus Pt. 2
~~~~~~~~~~~~

"MAN!...               SKIN!...               BOOTS!"
|-------------------------------------------------|
|-------------------------------------------------|
|-------5-----5-----------------5--7--5-----------|
|-7-----5-----5--7-----7--------5--7--5--7-----7--|
|-7--------------7-----7-----------------7-----7--|
|-5--------------------5-----------------------5--|


      "she's walking in   man skin boots..."
|-------------------------------------------------|
|-------------------------------------------------|
|-------5-----5-----------5--5-----7-----8--7--5--|
|(7)----5-----5--7--7-----5--5-----7-----8--7--5--|
|(7)-------------7--7-----------------------------|
|(5)----------------------------------------------|


"MAN!...               SKIN!...               BOOTS!"
|-------------------------------------------------|
|-------------------------------------------------|
|-------5-----5-----------------5--7--5-----------|
|-7-----5-----5--7-----7--------5--7--5--7-----7\-|
|-7--------------7-----7-----------------7-----7\-|
|-5--------------------5-----------------------5\-|


                         First time end of chorus
|-------------------------------------------------|
|-------------------------------------------------|
|----------------------------------------------0--|
|-------------------------5--7-----8-----5--7\-0--| Back to Verse
|-------------------------3--5-----6--------------|
|-------------------------------------------------|



Solo Rhythm 1
~~~~~~~~~~~~~

|-------------------------|
|-------------------------|
|-------------------------|
|-------------------------| Play x4
|-4--------4-----4--4-----|
|-2-----2--2--2--2--2--2--|
        .     .        .



Lead with Solo Rhythm 1
~~~~~~~~~~~~~~~~~~~~~~~

|-------------------------|-------------------------|
|-7-----------------------|-9-----------------------|
|-9b11--------------------|-11b13-------------------|
|-------------------------|-------------------------|
|-------------------------|-------------------------|
|-------------------------|-------------------------|


|-------------------------|-------------------------|
|-10----------------------|-12----------------------|
|-12b14-------------------|-14b16-------------------|
|-------------------------|-------------------------|
|-------------------------|-------------------------|
|-------------------------|-------------------------|



Solo Rhythm 2
~~~~~~~~~~~~~

|-------------------------------------------------|
|-------------------------------------------------|
|-------------------------------------------------|
|-4--4--4--4--2--2--2--2--------------------------|
|-2--2--2--2--0--0--0--0--6--6--6--6--5--5--5--5--|
|-------------------------4--4--4--4--3--3--3--3--|


|-------------------------------------------------|
|-------------------------------------------------|
|-------------------------------------------------| Play x2
|-------------------------------------------------|
|-------------------------------------------------|
|-2--1--0--2--1--0--2--1--0--2--1--0--2--1--0-----|



Lead with Solo Rhythm 2
~~~~~~~~~~~~~~~~~~~~~~~

strike these notes while bent
        V   V   V 
|------------------------------------------------------------------|
|-10b12-b12-b12-b12--9b10-b10-b10-b10--8b9-b9-b9-b9--7b8-b8-b8-b8--|
|------------------------------------------------------------------|
|------------------------------------------------------------------|
|------------------------------------------------------------------|
|------------------------------------------------------------------|

  Fast pull-offs!
|-----------------------------------|----------------------------------|
|-7p0-----7p0-----10p0-----10p0-----|-10p0-----10p0-----10p0-----10~~~-|
|-----9p0-----9p0------9p0------9p0-|------9p0------9p0------9p0-------|
|-----------------------------------|----------------------------------|
|-----------------------------------|----------------------------------|
|-----------------------------------|----------------------------------|


|--------------------------|--------------------------|
|/12-12-12-12-/14-14-14-14-|/15-15-15-15-/17-17-17-17-|
|--------------------------|--------------------------|
|--------------------------|--------------------------|
|--------------------------|--------------------------|
|--------------------------|--------------------------|


|-17p14p12----17p14p12----17p14p12----17p14p12----|
|----------12----------12----------12----------12-|
|-------------------------------------------------|
|-------------------------------------------------|
|-------------------------------------------------|
|-------------------------------------------------|


|-17p14p12----17p14p12----12p14p12----14~~~-------|
|----------12----------12----------12-------------|
|-------------------------------------------------|
|-------------------------------------------------|
|-------------------------------------------------|
|-------------------------------------------------|



After solo:
~~~~~~~~~~~

"one true alpha female puts you on the level..."
|-------------------------------------------------|
|-------------------------------------------------|
|-------------------------------------------------| Play x4
|-------------------------------------------2-----|
|-------4-----4--------4-----4--------4-----0-----|
|-2--2--2--2--2--2--2--2--2--2--2--2--2--2--------|
  .  .     .     .  .     .     .  .     .


 "man...               skin..."
|-------------------------------------------------|
|-------------------------------------------------|
|-------------------------------------------------| Guitar left
|-------------------------------------------------|
|-------------------------------------------------|
|-0--------------------------------------0--1--2--|
|                                                 |
|-------------------------------------------------|
|-------------------------------------------------|
|-------------------------------------------------| Guitar right
|-------------------------------------------------|
|-------------------------------------------------|
|-0--0--0--0--0--0--0--0--0--0--0--0--0--0--1--2--|
  .  .  .  .  .  .  .  .  .  .  .  .  .  .  .  .


 "boots...                            she's wearing..."
|-------------------------------------------------|
|-------------------------------------------------|
|-------------------------------------------------| Guitar left
|-------------------------------------------------|
|-------------------------------------------------|
|(2)----------------------------------------------|
|                                                 |
|-------------------------------------------------|
|-------------------------------------------------|
|-------------------------------------------------| Guitar right
|-------------------------------------------------|
|-------------------------------------------------|
|-2--2--2--2--2--2--1--0--2--1--0--2--1--0--2--1--|
  .  .  .  .  . 


 "man...             skin...                   boots..."
|-------------------------------------------------|
|-------------------------------------------------|
|-------------------------------------------------| Guitar left
|-------------------------------------------------|
|----------------------------------------------4--|
|-0--------------------------------------0--1--2--|
|                                                 |
|-------------------------------------------------|
|-------------------------------------------------|
|-------------------------------------------------| Guitar right
|-------------------------------------------------|
|----------------------------------------------4--|
|-0--0--0--0--0--0--0--0--0--0--0--0--0--0--1--2--|
  .  .  .  .  .  .  .  .  .  .  .  .  .  .  .   



|-------------------------------------------------|
|-------------------------------------------------|
|------------------rest---------------------------|
|-------------------------------------------------|
|-------------------------------------------------|
|-------------------------------------------------|
|                                                 |
|-------------------------------------------------|
|-------------------------------------------------|
|------------------rest---------------------------|
|-------------------------------------------------|
|-------------------------------------------------|
|-------------------------------------------------|


Back to Chorus Pt. 1 (played twice), then play Chorus Pt. 2
with the following lead bits over it:



Lead bits over final Chorus
~~~~~~~~~~~~~~~~~~~~~~~~~~~

|------------------------------------------------|
|-13----------12----------10---------------------|
|-15b17-------14b16-------12b14------------------|
|------------------------------------------------|
|------------------------------------------------|
|------------------------------------------------|

|------------------------------------------------|
|-13----------15----------10---------------------|
|-15b17-------17b19-------12b14------------------|
|------------------------------------------------|
|------------------------------------------------|
|------------------------------------------------|

|------------------------------------------------|
|-13----------12----------10---------------------|
|-15b17-------14b16-------12b14------------------|
|------------------------------------------------|
|------------------------------------------------|
|------------------------------------------------|

|-------------12---------------------------------|
|-13----------15b17------------------------------|
|-15b17------------------------------------------|
|------------------------------------------------|
|------------------------------------------------|
|------------------------------------------------|

End!
Добавлено: 17.05.2012
Другие материалы по этой песне:
  • Аккорды и текст

Страница создана 17.05.2012
http://primanota.ru/lordi/man-skin-boots-chords.htm
Привет, Гость.
Предлагаем пройти революционный курс по гитаре.
Подарок от PrimaNota.Ru, забирай!