PrimaNota.ru - самый крупный в мире бесплатный архив песенных текстов, аккордов, табулатур и нот


Lordi - Hell Sent In The Clowns - таба, видео

Регистрация Запомнить меня
Войти через:  Facebook Google Twitter Vk Yandex Mail.ru

Lordi - Hell Sent In The Clowns - таба, видео

Печатать
Просмотров: 205
ARTIST: Lordi
SONG: Hell Sent In The Clowns
ALBUM: Scare Force One (2014)
GUITARIST: Amen
TUNING: standard (EADGBE)
TABBED BY: Poglia

INTRO
 
E|--------------------------|--------------------------|--------------------------|--------------------------|
B|--------------------------|--------------------------|--------------------------|--------------------------|
G|--9--9--9--9--9--9--9--9--|--8--8--8--8--8--8--8--8--|--2--2--2--2--2--2--2--2--|--5--5--5--5--7--7--7--7--|
D|--9--9--9--9--9--9--9--9--|--8--8--8--8--8--8--8--8--|--2--2--2--2--2--2--2--2--|--5--5--5--5--7--7--7--7--|
A|--7--7--7--7--7--7--7--7--|--6--6--6--6--6--6--6--6--|--0--0--0--0--0--0--0--0--|--3--3--3--3--5--5--5--5--|
E|--7--7--7--7--7--7--7--7--|--6--6--6--6--6--6--6--6--|--------------------------|--3--3--3--3--5--5--5--5--|

(repeat 2x)

RIFF

E|--------------------------|-------------------------|--------------------------|--------------------------|
B|--------------------------|-------------------------|--------------------------|--------------------------|
G|--------------------------|-------------------------|--------------------------|--------------------------|
D|--------------------------|-------------------------|--------------------------|--------------3--2--3--2--|
A|--------------2--7~-------|--------------2--7~------|--------------2--7~-------|--------------------------|
E|--0-----0--------------0--|-----0-----0-------------|--0-----0--------------0--|-----0-----0--------------|

E|--------------------------|-------------------------|--------------------------|-------------------|
B|--------------------------|-------------------------|--------------------------|-------------------|
G|--------------------------|-------------------------|--------------------------|-------------------|
D|--------------------------|-------------------------|--------------------------|-------------------|
A|--------------2--7~-------|--------------2--7~------|--------------2--7~-------|-------------------|
E|--0-----0--------------0--|-----0-----0-------------|--0-----0--------------0--|-------------------|

VERSE

                                       PH
E|----------------------|------------------------|------------------------|-------------------|
B|----------------------|------------------------|------------------------|-------------------|
G|----------------------|------------------------|------------------------|-------------------|
D|----------------------|------------------------|------------------------|-------------------|
A|-------2----1----2----|-------2------1~--------|--0----2----1-----------|-------------------|
E|--0-------------------|--3---------------------|---------------3--0-----|-------------------|

(repeat 2x, then this)

      PM PM                   PM PM                   PM PM                   PM PM                     
E|-----------------------|-----------------------|-----------------------|-----------------------|
B|-----------------------|-----------------------|-----------------------|-----------------------|
G|-----------------------|-----------------------|-----------------------|--4--------4-----------|
D|--2--------2-----------|--7--------7-----------|--5--------5-----------|--4--------4-----------|
A|--2--------2-----------|--7--------7-----------|--5--------5-----------|--2--2--2--2-----------|
E|--0--0--0--0-----------|--5--5--5--5-----------|--3--3--3--3-----------|--2--2--2--2-----------|

PRE-CHORUS

E|--------------------------|--------------------------|--------------------------|--------1-----------5----|
B|--------------------------|--------------------------|--------------------------|-----1----------5--------|
G|--7--7--7--7--7--7--7--7--|--5--5--5--5--5--5--5--5--|--3--3--3--3--3--3--3--3--|-------------------------|
D|--7--7--7--7--7--7--7--7--|--5--5--5--5--5--5--5--5--|--3--3--3--3--3--3--3--3--|--3----------7-----------|
A|--5--5--5--5--5--5--5--5--|--3--3--3--3--3--3--3--3--|--1--1--1--1--1--1--1--1--|-------------------------|
E|--------------------------|--------------------------|--------------------------|-------------------------|

(repeat 2x, then this)

E|--------------------------|
B|--------------------------|
G|--9--9--9--9--9--9--9--9--|
D|--9--9--9--9--9--9--9--9--|
A|--7--7--7--7--7--7--7--7--|
E|--------------------------|

CHORUS

E|-------------------|--------------------|-------------------|--------------------|
B|-------------------|--------------------|-------------------|--------------------|
G|-------------------|--7--------5--------|-------------------|--7-----------------|
D|--7----------------|--7--------5--------|--5----------------|--7--------3--------|
A|--7----------------|--5--------3--------|--5----------------|--5--------3--------|
E|--5----------------|--------------------|--3----------------|-----------1--------|

(repeat 2x)

INTRO

(same as before)

RIFF

E|--------------------------|-------------------------|--------------------------|-------------------|
B|--------------------------|-------------------------|--------------------------|-------------------|
G|--------------------------|-------------------------|--------------------------|-------------------|
D|--------------------------|-------------------------|--------------------------|-------------------|
A|--------------2--7~-------|--------------2--7~------|--------------2--7~-------|-------------------|
E|--0-----0--------------0--|-----0-----0-------------|--0-----0--------------0--|-------------------|

VERSE

(same as before)

PRE-CHORUS

(same as before)

CHORUS

(same as before, then this)

E|--------------------------|------------------------|
B|--------------------------|------------------------|
G|--5--5--5--5--5--5--5--5--|--6--6--6--6--6---------|
D|--5--5--5--5--5--5--5--5--|--7--7--7--7--7---------|
A|--3--3--3--3--3--3--3--3--|--4--4--4--4--4---------|
E|--------------------------|------------------------|

SOLO (LEAD PART)

E|--5--------5--------5S----|--12----------12----------12S----|
B|-----6--------6-----------|------13----------13-------------|
G|--------7--------7--------|----------14----------14---------|
D|--------------------------|---------------------------------|
A|--------------------------|---------------------------------|
E|--------------------------|---------------------------------|

E|--17----------17----------17\----|---12------12-----12------12----|
B|------18----------18-------------|--13b-----13b----12b-----12b----|
G|----------19----------19---------|--------------------------------|
D|---------------------------------|--------------------------------|
A|---------------------------------|--------------------------------|
E|---------------------------------|--------------------------------|

E|--5--------------5h-6h-8p-6p-5S--|--12------------------12h-13h-15p-13p-12S--|
B|-----6-----6---------------------|------13------13---------------------------|
G|--------7-----7------------------|----------14------14-----------------------|
D|---------------------------------|-------------------------------------------|
A|---------------------------------|-------------------------------------------|
E|---------------------------------|-------------------------------------------|

E|--17------------------17h-18h-20p-18p-17--|--17h--18--17----------------------|
B|------18------18--------------------------|-----------------18h--20--17h--18--|
G|----------19------19----------------------|-----------------------------------|
D|------------------------------------------|-----------------------------------|
A|------------------------------------------|-----------------------------------|
E|------------------------------------------|-----------------------------------|
             
E|---------------------|---------------------|
B|--15b----------------|--15b----------------|
G|---------------------|---------------------|
D|---------------------|---------------------|
A|---------------------|---------------------|
E|---------------------|---------------------|

SOLO (RHYTHM PART)

E|--------------------------|--------------------------|--------------------------|------------------------|
B|--------------------------|--------------------------|--------------------------|------------------------|
G|--7--7--7--7--7--7--7--7--|--5--5--5--5--5--5--5--5--|--3--3--3--3--3--3--3--3--|------------------------|
D|--7--7--7--7--7--7--7--7--|--5--5--5--5--5--5--5--5--|--3--3--3--3--3--3--3--3--|--3-----3----7-----7----|
A|--5--5--5--5--5--5--5--5--|--3--3--3--3--3--3--3--3--|--1--1--1--1--1--1--1--1--|--3-----3----7-----7----|
E|--------------------------|--------------------------|--------------------------|--1-----1----5-----5----|

E|--------------------------|--------------------------|--------------------------|----------------------|
B|--------------------------|--------------------------|--------------------------|----------------------|
G|--7--7--7--7--7--7--7--7--|--5--5--5--5--5--5--5--5--|--3--3--3--3--3--3--3--3--|----------------------|
D|--7--7--7--7--7--7--7--7--|--5--5--5--5--5--5--5--5--|--3--3--3--3--3--3--3--3--|--3----3----7----7----|
A|--5--5--5--5--5--5--5--5--|--3--3--3--3--3--3--3--3--|--1--1--1--1--1--1--1--1--|--3----3----7----7----|
E|--------------------------|--------------------------|--------------------------|--1----1----5----5----|

E|--------------------------|
B|--------------------------|
G|--9--9--9--9--9--9--9--9--|
D|--9--9--9--9--9--9--9--9--|
A|--7--7--7--7--7--7--7--7--|
E|--------------------------|

CHORUS

(same as before, but repeat 4x instead of 2x)

OUTRO

(same as intro, then this)

E|---------------------|
B|---------------------|
G|--5------------------|
D|--5------------------|
A|--3------------------|
E|--3------------------|
Добавлено: 12.05.2015
Вам также может быть интересно:
Другие материалы по этой песне:
  • Аккорды и текст

Страница создана 12.05.2015
http://primanota.ru/lordi/hell-sent-in-clowns-chords.htm
Привет, Гость.
Предлагаем пройти революционный курс по гитаре.
Подарок от PrimaNota.Ru, забирай!