PrimaNota.ru - самый крупный в мире бесплатный архив песенных текстов, аккордов, табулатур и нот


Lordi - Haunted Town - текст песни, таба, видео

Регистрация Запомнить меня
Войти через:  Facebook Google Twitter Vk Yandex Mail.ru

Lordi - Haunted Town - текст песни, таба, видео

Печатать
Просмотров: 129
Song: Haunted Town
Band: Lordi
Tabbed by: unspeakable.elvis@gmail.com

Tuning: Standard

Legend:

.       palm mute
h       hammer on
p       pull off
/       slide up to note
\       slide down from note
7b9     bend 7th fret major second up
b9      strike note while strings still bent
9r7     release previous bend
x       dead note
~       vibrato


Intro A
~~~~~~~

|-------------------------------------------------|
|-------------------------------------------------|
|-------------------------------------------------|
|-------------------------------------------------|
|-2---/5---7-----5--7-----2---/5---7-----5--7-----|
|-0--------------3--5-----0--------------3--5-----|



|-------------------------------------------------|
|-------------------------------------------------|
|-------------------------------------------------|
|-------------------------------------------------|
|-2---/5---7-----5--7-----2---/5---7--5----6----7-|
|-0--------------3--5-----0-----------3----4----5-|



Intro B
~~~~~~~

|-------------------------------------------------|
|-------------------------------------------------|
|-------------------------------------------------|
|-------------------------------------------------|
|-2---/5---7-----5--7-----2---/5---7-----5--7-----|
|-0--------------3--5-----0--------------3--5-----|



|-------------------------------------------------|
|-------------------------------------------------|
|-------------------------------------------------|
|-------------------------------------------------|
|-2---/5---7-----5--7-----2---/5---7--5-----6-----|
|-0--------------3--5-----0-----------3-----4-----|



Verse (Play x2)
~~~~~
 "at three a.m. I looked out the window..."
|-------------------------------------------------|
|-------------------------------------------------|
|-------------------------------------------------|
|-------------------------------------------------|
|-------3--------5--3-----------3--------5--3-----|
|-5--5-----5--------------5--5-----5--------------|
  .  .  .  .     .  .     .  .  .  .     .  .

 "foreboding figures..."
|-------------------------------------------------|
|-------------------------------------------------|
|-------------------------------------------------|
|-------------------------------------------------|
|-------3--------5--3-----------3-----5-----6-----|
|-5--5-----5--------------5--5-----5--3-----4-----|
  .  .  .  .     .  .     .  .  .  .


Bridge
~~~~~~
 "oooh..."                 "now who woke up the dead?"
|-------------------------------------------------|
|-3-----------------------------------------------|
|-2-----------------------5-----------------------|
|-0-----------------------5-----------------------|
|-------------------------3-----------3--2--------|
|-------------------------------------------3~~---|



|-------------------------------------------------|
|-------------------------------------------------|
|-------------------------------------------------|
|-2--2--5--2-----7--5-----2--2--5--2-----7--5-----|
|-0--0--3--0-----5--3-----0--0--3--0-----5--3-----|
|-------------------------------------------------|


 "oooh..."                           "evil's..."
|-------------------------------------------------|
|-------------------------------------------------|
|-------------------------------------------------|
|-------------------------------------2-----5-----|
|-5--------5--------5-----2-----2-----0-----3-----|
|-3--3--3--3--3--3--3--3--0-----0-----------------|
     .  .     .  .     .


Chorus
~~~~~~
 "pouring down..."                   "on this..."
|-------------------------------------------------|
|-------------------------------------------------|
|-------------------------------------------------|
|-7-----------------5--7--------------------5-----|
|-5-----------------3--5--------------2-----3-----|
|-------------------------------------0-----------|


 "haunted town..."                    "there's no..."
|-------------------------------------------------|
|-------------------------------------------------|
|-------------------------------------------------|
|-2-----------------5--2--------------2-----5-----|
|-0-----------------3--0--------------0-----3-----|
|-------------------------------------------------|


 "way around..."                     "tonight all..." 
|-------------------------------------------------|
|-------------------------------------------------|
|-------------------------------------------------|
|-7-----------------5--7--------------------5-----|
|-5-----------------3--5--------------2-----3-----|
|-------------------------------------0-----------|


 "hell abounds..."                    "haunted..."
|-------------------------------------------------|
|-------------------------------------------------|
|-------------------------------------------------|
|-2-----------------5--2--------------2-----5-----|
|-0-----------------3--0--------------0-----3-----|
|-------------------------------------------------|


 "town..."
|-------------------------------------------------|
|-------------------------------------------------|
|-------------------------------------------------|
|-7-----7-----7-----7-----7-----7-----7-----7-----|
|-5-----5-----5-----5-----5-----5-----5-----5-----|
|-------------------------------------------------|



Back to Intro B, Verse, Bridge, Chorus, after which:

Keyboard Solo
~~~~~~~~~~~~~

|-------------------------------------------------|
|-------------------------------------------------|
|-------------------------------------------------|
|-2---/5---7--------5--7--2---/5---7--------5--7--|
|-0-----------5--7--------0-----------5--7--------|
|-------------------------------------------------|
              .  .  .  .              .  .  .  .


|-------------------------------------------------|
|-------------------------------------------------|
|------------------------------------(pick scrape)| Lead
|--------------------------------------\-\-\-\----| Guitar
|--------------------------------------\-\-\-\----|
|-------------------------------------------------|
|                                                 |
|                                                 |
|-------------------------------------------------|
|-------------------------------------------------|
|-------------------------------------------------| Rhythm
|-2---/5---7--------5--7--2---/5---7--------------| Guitar
|-0-----------5--7--------0-----------7----6----5-|
|-------------------------------------5----4----3-|
              .  .  .  .


Guitar solo
~~~~~~~~~~~

|-------------------------------------------------|
|-12---------------------12-----------------------|
|-14b16--14b16--14b16~~--14b16r14--12--14b16------| Lead
|-------------------------------------------------|
|-------------------------------------------------|
|-------------------------------------------------|
|                                                 |
|                                                 |
|-------------------------------------------------|
|-------------------------------------------------|
|-------------------------------------------------| Rhythm
|-------------------------------------------------|
|-2---/5---7-----5--7-----2---/5---7-----5--7-----|
|-0--------------3--5-----0--------------3--5-----|



|-------------------------------------------------|
|-12-----------12-----------12--------------------|
|-14b16r14-12--14b16r14-12--14b16r14-14p12--------| Lead
|------------------------------------------14~~~--|
|-------------------------------------------------|
|-------------------------------------------------|
|                                                 |
|                                                 |
|-------------------------------------------------|
|-------------------------------------------------|
|-------------------------------------------------| Rhythm
|-------------------------------------------------|
|-2---/5---7-----5--7-----2---/5---7-----5--7-----|
|-0--------------3--5-----0--------------3--5-----|



|-------------------------------------------------|
|/12-12-12-12-12-12-12-12-11-11-11-11-10-10-10-10-|
|-------------------------------------------------| Lead
|-------------------------------------------------|
|-------------------------------------------------|
|-------------------------------------------------|
|                                                 |
|"I'm haunting, oh god I'm loving it..."          |
|-------------------------------------------------|
|-------------------------------------------------|
|-------------------------------------------------| Rhythm
|-------------------------------------------------|
|-5--------5--5--------5--4-----4-----3-----3--3--|
|-3--3--3--3--3--3--3--3--2--2--2--2--1--1--1--1--|
     .  .        .  .        .     .     .


|-------15b17-b17-b17-b17-b17-b17-b17-15p13p12----|
|-10\------------------------------------------12-|
|-------------------------------------------------| Lead
|-------------------------------------------------|
|-------------------------------------------------|
|-------------------------------------------------|
|                                                 |
|                                                 |
|-------------------------------------------------|
|-------------------------------------------------|
|-------------------------------------------------| Rhythm
|-------------------------------------------------|
|-2--2--5--2-----2--------2--2--5--2-----2--------|
|-0--0--3--0-----0--------0--0--3--0-----0--------|



|-------------------------------------------------|
|-12----------------------------------------------|
|-14b16-----16r14\--------------------------------| Lead
|-------------------------------------------------|
|-------------------------------------------------|
|-------------------------------------------------|
|                                                 |
|"aaah, you bet..."                  "evil's..."  |
|-------------------------------------------------|
|-------------------------------------------------|
|-------------------------------------------------| Rhythm
|-------------------------------------2-----5-----|
|-5--------5--------5-----2-----2-----0-----3-----|
|-3--3--3--3--3--3--3--3--0-----0-----------------|
     .  .     .  .     .


Post-solo Chorus
~~~~~~~~~~~~~~~~
 "pouring..."                        "on this..."
|-------------------------------------------------|
|-------------------------------------------------|
|-------------------------------------------------|
|-7-----------------------------------------5-----|
|-5-----------------------------------2-----3-----|
|-------------------------------------0-----------|


 "haunted town..."                   "there's no..."
|-------------------------------------------------|
|-------------------------------------------------|
|-------------------------------------------------|
|-2-----------------------------------2-----5-----|
|-0-----------------------------------0-----3-----|
|-------------------------------------------------|


 "way..."                            "tonight all..."
|-------------------------------------------------|
|-------------------------------------------------|
|-------------------------------------------------|
|-7-----------------------------------------5-----|
|-5-----------------------------------2-----3-----|
|-------------------------------------0-----------|


 "hell abounds..."                    "evil's..."
|-------------------------------------------------|
|-------------------------------------------------|
|-------------------------------------------------|
|-2-----------------5--2--------------2-----5-----|
|-0-----------------3--0--------------0-----3-----|
|-------------------------------------------------|


Back to Chorus, after which:
                                      "yeah..."
|-------------------------------------------------|
|-------------------------------------------------|
|-------------------------------------------------|
|-2--2-----2--2-----2--2--------------------------|
|-0--0-----0--0-----0--0--------------------------|
|-------------------------------------------------|

End.
Добавлено: 14.07.2013
Другие материалы по этой песне:
  • Аккорды и текст

Страница создана 13.04.2012
http://primanota.ru/lordi/haunted-town-chords.htm
Привет, Гость.
Предлагаем пройти революционный курс по гитаре.
Подарок от PrimaNota.Ru, забирай!