PrimaNota.ru - самый крупный в мире бесплатный архив песенных текстов, аккордов, табулатур и нот


Lordi - Diva - текст песни, таба, видео

Регистрация Запомнить меня
Войти через:  Facebook Google Twitter Vk Yandex Mail.ru

Lordi - Diva - текст песни, таба, видео

Печатать
Просмотров: 162
Drop D but tune every string 1/5 sharper!


These are the chords that are used

   G5    D#5   F5     D#    F    Gm     A5      A#5    D5
e|---------------------------------------------------------------------------|
B|---------------------------------------------------------------------------|
G|--------------------3-----5-----7------------------------------------------|
D|--5-----1-----3-----5-----7-----8-------7------8------0--------------------|
A|--5-----1-----3-----6-----8-----10------7------8------0--------------------|
D|--5-----1-----3-------------------------7------8------0--------------------|

******************************************************************************************
Intro:

e|---------------------------------------------------------------------------|
B|--11----11-----10------10------13------13------11------11------------------|
G|----<12>---<12>---<12>----<12>----<12>----<12>----<12>-----<12>------------|
D|---------------------------------------------------------------------------|
A|---------------------------------------------------------------------------|
D|---------------------------------------------------------------------------|

e|---------------------------------10----------------------------------------|
B|--11-----11------10------10--------------------13-----------12-------------|
G|-----<12>---<12>----<12>----<12>------12-----------12----------------------|
D|------------------------------------------12-----------12------------------|
A|---------------------------------------------------------------------------|
D|---------------------------------------------------------------------------|


						Chords start playing

                                                          G5
e|-------------------------------------------------------------------------13---------------|
B|-11----11----10-----10------13-----13----11------11-----10-----10-----10----10-10-10-10-10|
G|---<12>--<12>--<12>----<12>---<12>---<12>---<12>---<12>----<12>---<12>--------------------|
D|------------------------------------------------------------------------------------------|
A|------------------------------------------------------------------------------------------|
D|------------------------------------------------------------------------------------------|


    G5                                                          D#5
e|----------------------------------------------------------------------------------10------------|
B|--11----11-----10------10------13------13------11------11------10------10---------------13-11-10|
G|----<12>---<12>---<12>----<12>----<12>----<12>----<12>----<12>----<12>----<12>-12----12---------|
D|------------------------------------------------------------------------------------------------|
A|------------------------------------------------------------------------------------------------|
D|------------------------------------------------------------------------------------------------|


    G5                                                          F5
e|--------------------------------------------------------------------------------------------------------|
B|11----11-----10------10------13------13------11------11------10------10----10----10----11-11-10-11------|
G|--<12>---<12>---<12>----<12>----<12>----<12>----<12>----<12>----12------12----12----12-------------12-12|
D|--------------------------------------------------------------------------------------------------------|
A|--------------------------------------------------------------------------------------------------------|
D|--------------------------------------------------------------------------------------------------------|

**************************************************************************************************************

Verse:

 G5                         
 Somebody's running after you

D#5                        G5
 There are times I do the same

 G5                                D#5 F5
 But I cannot stand the way you live

F5               D#5    F5      G5
 I cannot simply simply follow sweet

 G5                                    D#5                     
 My mind is drowned in a sea of thoughts, my heart is bleeding

G5                               D#5 F5                    D#5 F5  
 My mind is black I need no more,       oh sister release me

*******************************************************************************************************

Chours:

D#           F                 Gm     G5          A#5 A5      D#5   
 And I always love what others hate - but I never give up faith

D#                F           Gm     G5             A#5  A5     D#5  
 Out in their world I feel insane - at her eyes I'm dying to stare

D#           F                  Gm     G5 A#5 A5  G5 A#5 A5 G5 D#5  
 And I always love what others hate - but I never give up faith

D#            F                  D5              D5               D5
 Give me a hug  please do it now,  sister never, never, never, never let me down

***************************************************************************************************
During the bridge The intro parts with chords with is played

*****************************************************************************

Solo (2:46)

    D5                           
e|---------------------------------------------------------------------------|
B|--------------------------------10-11-13-11-10-----------------------------|
G|----------------------------12------------------12--10---------------------|
D|-------------10----10-12-13------------------------------------------------|
A|---10-12-13-----13---------------------------------------------------------|
D|---------------------------------------------------------------------------|


 
repeat twice (Chords for 2nd time are below) 

  G5                                     D#5             
  G5                                     F5                       D#5        F5
e|----------------------------------------------------------------10-10-10-10----|
B|-11-11-11-11-10-10-10-10--13-13-13-11--13-13-13-13--11-11-11-11-------------13-|
G|-------------------------------------------------------------------------------|
D|-------------------------------------------------------------------------------|
A|-------------------------------------------------------------------------------|
D|-------------------------------------------------------------------------------|

  G5
e|---------------------------------------------------------------------------|
B|-11--11--11--11--11--11--11--11--11-11-------------------------------------|
G|---------------------------------------------------------------------------|
D|---------------------------------------------------------------------------|
A|---------------------------------------------------------------------------|
D|---------------------------------------------------------------------------|

***********************************************************************************************
Ending(4:07)

e|---------------------------------------------|
B|--11------11-------11----11----------10-10-11|
G|-----12------12-------12----12-12-12---------|
D|---------------------------------------------|
A|---------------------------------------------|
D|---------------------------------------------|
Добавлено: 25.07.2013
Другие материалы по этой песне:
  • Аккорды и текст

Страница создана 10.04.2012
http://primanota.ru/lordi/diva-chords.htm
Привет, Гость.
Предлагаем пройти революционный курс по гитаре.
Подарок от PrimaNota.Ru, забирай!