PrimaNota.ru - самый крупный в мире бесплатный архив песенных текстов, аккордов, табулатур и нот


Lordi - Deadache - текст песни, таба, бас-таба, видео

Регистрация Запомнить меня
Войти через:  Facebook Google Twitter Vk Yandex Mail.ru

Lordi - Deadache - текст песни, таба, бас-таба, видео

Печатать
Просмотров: 223
Song: Deadache
Band: Lordi
Tabbed by: unspeakable.elvis@gmail.com

Legend:
.       palm mute
h       hammer on
p       pull off
/       slide up to note
\       slide down from note
7b9     bend 7th fret major second up
9r7     release previous bend
~       vibrato
x	dead note


Standard tuning


Intro
~~~~~

|---------------------------------|
|-5-----6-----5-------------------| Keyboards tabbed for
|---5-----5-----5---7-4-0-5-0-4-0-| guitar
|-----7-----7-----7---------------|
|---------------------------------|
|---------------------------------|


|---------------------------------|---------------------------------|
|---------------------------------|---------------------------------|
|---------------------------------|---------------------------------|
|-7-7---2-2---3-3---5-5-----------|-7-7---2-2---3-3---5-5-----------|
|-7-7---2-2---3-3---5-5-----------|-7-7---2-2---3-3---5-5-----------|
|-5-5---0-0---1-1---3-3-----------|-5-5---0-0---1-1---3-3-----------|


|---------------------------------|---------------------------------|
|---------------------------------|---------------------------------|
|---------------------------------|-------------------------5---4---|
|-7-7---2-2---3-3---5-5-----------|-7-7---2-2---3-3---5-5---5---5---|
|-7-7---2-2---3-3---5-5-----------|-7-7---2-2---3-3---5-5---3---2---|
|-5-5---0-0---1-1---3-3-----------|-5-5---0-0---1-1---3-3-----------|



Verse
~~~~~
 "she's over by my place..."
|---------------------------------|-----------------------------0---|
|---------------------------------|-----------------------------0---|
|---------------------------------|---------2-1-2-1---1-2-1---1-1---|
|-4-4-------4---4-------4-4---4---|-2-2-----2-2-2-2---2-2-2---2-----|
|-4-4-------4---4-------5-4---4---|-2-2-----------------------------|
|-2-2-2-2-2-2-2-2-2-2-2-2-2-2-2-2-|-0-0-0-0---------0-------0-------|
      . . .   .   . . .     .   .       . .         .       .
 Play twice


Pre-chorus
~~~~~~~~~~
 "flashlights from authorities..."
|---------------------------------|---------------------------------|
|-3-----3-3-----3-3-----3-3-----3-|---------------------------------|
|-2-----2-2-----2-2-----2-2-----2-|---------------------------------|
|-0-0-0-0-0-0-0-0-0-0-0-0-0-0-0-0-|-4---4---3---3---4---4---2-------|
|---------------------------------|-2-2-2-2-1-1-1-1-2-2-2-2-0-------|
|---------------------------------|---------------------------------|
    . .     . .     . .     . .       .   .   .   .   .   .

   "familiar faces of the long-dead..."
|---------------------------------|---------------------------------|
|---------------------------------|---------------------------------|
|---------------------------------|---------------------------------|
|-5---------------7---------------|-8-8-8-8-8-8-8-8-8\--------------|
|-x---------------x---------------|-x-x-x-x-x-x-x-x-8\--------------|
|-3---------------5---------------|-6-6-6-6-6-6-6-6-6\--------------|



Chorus
~~~~~~
     "the mad butcher goes bump in the night..."
|---------------------------------|---------------------------------|
|---------------------------------|---------------------------------|
|-3-3-3---3---3---3---3-3-3-3-3---|-3-3---3---3---------------------|
|-5-5-5---5---5---5---5-5-5-5-5---|-3-3---3---3---3---3---4---4-----|
|-5-5-5---5---5---5---5-5-5-5-5---|-1-1---1---1---3---3---5---5-----|
|---------------------------------|---------------1---1---2---2-----|

 Play twice


First Chorus ending:
~~~~~~~~~~~~~~~~~~~~
 "sometimes...     I end up with a deadache..."
|---------------------------------|
|---------------------------------|
|---------------------------------|
|-8-----------------------5---5---|
|-6---------------3---2---3---2---|
|-----------------1---0-----------|

 Back to Intro, Pre-chorus, Chorus


Second Chorus ending:
~~~~~~~~~~~~~~~~~~~~~
 "sometimes, I get a deadache yeah sometimes..."
|---------------------------------|---------------------------------|
|---------------------------------|---------------------------------|
|---------------------------------|-9---------------9---------------|
|-8---------------8---------------|-10--------------10--------------|
|-6---------------6---------------|-7---------------7---------------|
|---------------------------------|---------------------------------|


 "sometimes..."
|---------------------------------|
|---------------------------------|
|-11--------------11--------------|
|-12--------------12--------------|
|-9---------------9---------------|
|---------------------------------|



Interlude:
~~~~~~~~~~
   "in November I lost my family..."
|---------------------------------|---------------------------------|
|---------------------------------|---------------------------------|
|---------------------------------|---------------------------------|
|-5-5-5-3-3-3-3-3-2-2-2-1-1-1-1-1-|-0-0-0-----------------0-0-0-0-0-|
|---------------------------------|-------1-1-1-1-1-3-3-3-----------|
|---------------------------------|---------------------------------|
    . .   . . . .   . .   . . . .     . .   . . . .   . .   . . . . 

|---------------------------------|---------------------------------|
|---------------------------------|---------------------------------|
|---------------------------------|-2-2-2-2-2-2-2-2-2-2-2-2-2-2-2-2-|
|-5-5-5-3-3-3-3-3-2-2-2-1-1-1-1-1-|-0-0-0-0-0-0-0-0-0-0-0-0-0-0-0-0-|
|---------------------------------|---------------------------------|
|---------------------------------|---------------------------------|
    . .   . . . .   . .   . . . .     . .     . .     . .     . .  


Solo
~~~~

|---------------------7-9-10-9-7---|
|-10b12---10b12-b12----------------|
|----------------------------------| Lead
|----------------------------------| guitar
|----------------------------------| with wah pedal
|----------------------------------|
|                                  |
|----------------------------------|
|----------------------------------|
|-4--------------------------------| Rhythm
|-4--------------------------------| guitar
|-2--------------------------------|
|----------------------------------|



|---------------------9-10-12-10-9---|
|-12b14---12b14-b14------------------|
|------------------------------------|
|------------------------------------|
|------------------------------------|
|------------------------------------|
|                                    |
|------------------------------------|
|------------------------------------|
|-3----------------------------------|
|-3----------------------------------|
|-1----------------------------------|
|------------------------------------|



|---------------------10-12-14-12-10---|
|-13b15---13b15-b15--------------------|
|--------------------------------------|
|--------------------------------------|
|--------------------------------------|
|--------------------------------------|
|                                      |
|--------------------------------------|
|--------------------------------------|
|-4------------------------------------|
|-4------------------------------------|
|-2------------------------------------|
|--------------------------------------|



|---------------------12-14-15-14-12---|
|-15b17---15b17-b17--------------------|
|--------------------------------------|
|--------------------------------------|
|--------------------------------------|
|--------------------------------------|
|                                      |
|--------------------------------------|
|--------------------------------------|
|-2------------------------------------|
|-2------------------------------------|
|-0------------------------------------|
|--------------------------------------|



|-17---15---14----------------------------|
|----------------17---14------------------|
|-------------------------------14---12---|
|--------------------------12-------------|
|-----------------------------------------|
|-----------------------------------------|
|                                         |
|-----------------------------------------|
|-----------------------------------------|
|-----------------------------------------|
|-5-------------------7-------------------|
|-x-------------------x-------------------|
|-3-------------------5-------------------|



|-----------------------------------------|
|------------15b17---r15\-------r---------|
|/17---15-----------------------e---------|
|-------------------------------s---------|
|-------------------------------t---------|
|-----------------------------------------|
|                                         |
|-----------------------------------------|
|-------------------------------r---------|
|-------------------------------e---------|
|-8-8--8-8--8-8--8-8--8\--------s---------|
|-x-x--x-x--x-x--x-x--8\--------t---------|
|-6-6--6-6--6-6--6-6--6\------------------|


 Back to Chorus

Third Chorus ending:
~~~~~~~~~~~~~~~~~~~~

"sometimes...          sometimes..."
|---------------------|---------------------|
|---------------------|---------------------|
|---------------------|---------------------|
|-8----10-------------|-12---12-------------|
|-6----7--------------|-9----9--------------|
|---------------------|---------------------|


Chorus modulated up:
~~~~~~~~~~~~~~~~~~~~

|---------------------------------|---------------------------------|
|---------------------------------|---------------------------------|
|-2-2-2---2---2---2---2-2-2-2-2-2-|-5-5---5---5---------------------|
|-2-2-2---2---2---2---2-2-2-2-2-2-|-5-5---5---5---5---5---6---6-----|
|-0-0-0---0---0---0---0-0-0-0-0-0-|-3-3---3---3---5---5---7---7-----|
|---------------------------------|---------------3---3---4---4-----|

"sometimes I end up with a deadache..."
|---------------------------------|
|---------------------------------|
|---------------------------------|
|-3---------------4---------------|
|-3---------------5---------------|
|-1---------------2---------------|


Intro riff final:
~~~~~~~~~~~~~~~~~
                                          "...deadache!"
|---------------------------------|---------------------------------|
|---------------------------------|---------------------------------|
|---------------------------------|---------------------------------|
|-7-7---2-2---3-3---5-5----( x3)--|-7-7---2-2---3-3-----------------|
|-7-7---2-2---3-3---5-5-----------|-7-7---2-2---3-3-----------------|
|-5-5---0-0---1-1---3-3-----------|-5-5---0-0---1-1-----------------|

End!
Добавлено: 03.06.2013
Другие материалы по этой песне:
  • Аккорды и текст

Страница создана 08.06.2012
http://primanota.ru/lordi/deadache-chords.htm
Привет, Гость.
Предлагаем пройти революционный курс по гитаре.
Подарок от PrimaNota.Ru, забирай!