PrimaNota.ru - самый крупный в мире бесплатный архив песенных текстов, аккордов, табулатур и нот


Lordi - Bite It Like A Bulldog - текст песни, таба, бас-таба, видео

Регистрация Запомнить меня
Войти через:  Facebook Google Twitter Vk Yandex Mail.ru

Lordi - Bite It Like A Bulldog - текст песни, таба, бас-таба, видео

Печатать
Просмотров: 182
Song: Bite It Like A Bulldog
Band: Lordi
Tabbed by: unspeakable.elvis@gmail.com

Standard tuning

Bass intro:
|-------------------------------------|
|---------------------------------5---|
|---7---------------7-----5h7p5-----7-|
|-0---5-7-3-0---0-----5-7-------7-----|


Intro riff:  (I imagine two guitars playing it)
|-------------------------------------|
|-------------------------------------|
|-------------------------------------| 
|-2-2-2-4---2---2-----------------5---|
|-2-2-0-2-5-2---2---7-----5h7p5-----7-|
|-0-0-----3-0---0-----5-7-------7-----|
|                                     | 
|-------------------------------------|
|-------------------------------------|
|-------------------------------------|
|---------------------------------5---|
|-2/7-----5-2---2--/7-----5h7p5-----7-|
|-0---5-7-3-0---0-----5-7-------7-----|

Play three times for first intro, then

|-------------------------------------|
|-------------------------------------|
|-------------------------------------|
|-2-2-2-4---2---2---2---2-------------|
|-2-2-0-2-5-2---2---2---2-------------|
|-0-0-----3-0---0---0---0-------------|
|                                     |
|-------------------------------------|
|-------------------------------------|
|-------------------------------------|
|---------------2---2---2-------------|
|-2/7-------2---2---2---2-------------|
|-0---5-7-3-0---0---0---0-------------|



Verse:
 "Caught red handed..."
|---------------------------------|---------------------------------|
|-5---5-----------5---5-----------|-5---5-----------3-3---5---------| Play twice
|-4---4-----------4---4-----------|-5---5-----------2-2---4---------|
|-2---2-----------2---2-----------|-2---2-----------0-0---2---------|
|---------------------------------|---------------------------x---x-|
|-------0---0---0-------0---0---0-|-------0---0---0-----0-----x---x-|
        .   .   .       .   .   .         .   .   .     .

Bridge:
 "always trying to find another..."
|---------------------------------|---------------------------------|
|---------------------------------|-----8-------8-------8-------8---|
|-5--------------7----------------|-----9-------9-------9-------9---|
|-5--------------7----------------|-----9-------9-------9-------9---|
|-3--------------5----------------|---------------------------------|
|---------------------------------|-0-----0-0-----0-0-----0-0-------|
                                    .     . .     . .     . .

|---------------------------------|---------------------------------|
|---------------------------------|-----8-------8-----7---8---------|
|-5--------------7----------------|-----9-------9-----7---9---------|
|-5--------------7----------------|-----9-------9-----7---9---------|
|-3--------------5----------------|---------------------------------|
|---------------------------------|-0-----0-0-------0---------------|
                                    .     . .       .

Chorus
|---------------------------------|---------------------------------|
|---------------------------------|---------------------------------|
|-2-2-----2-2---2---2-------------|-------------------------2-2-----| Play twice
|-2-2-----2-2---2---2-----5-5---3-|---3-----3-3---5---5-----2-2-----|
|-0-0-----0-0---0---0-----5-5---3-|---3-----3-3---5---5-----0-0-----|
|-------------------------3-3---1-|---1-----1-1---3---3-------------|


Play Intro riff x4, Verse, Bridge, Chorus


Middle part:      (Timing is tricky; counts included for your convenience :)

  1 & 2 & 3 & 4 & 1 & 2 & 3 & 4 &   1 & 2 & 3 & 4 & 1 & 2 & 3 & 4 & 
|---------------------------------|---------------------------------|
|---3-----3---------3-------------|-3-----3-------------------------|
|---2-----2---------2-------------|-2-----2-------------------------|
|---0-2---0-2-------0-2---5---5-2-|-0-2---0---2---5---2-------------|
|-----2-----2---------2---5---5-0-|---2-------2---5---2-------------|
|-----0-----0---------0---3---3---|---0-------0---3---0-------------|
                   "You leave a trail of dead behind you..."


  1 & 2 & 3 & 4 & 1 & 2 & 3 & 4 &   1 & 2 & 3 & 4 & 1 & 2 & 3 & 4 & 
|---------------------------------|---------------------------------|
|---------------------------------|---------------6-----------------|
|---5-7---5-7-------5-7---5---5-7-|-5-7---5---7---5---7-----\-------|
|---5-7---5-7-------5-7---3---3-5-|-5-7---5---7---3---7-----\-------|
|---3-5---3-5-------3-5-----------|-3-5---3---5-------5-----\-------|
|---------------------------------|---------------------------------|

      

  1 & 2 & 3 & 4 & 1 & 2 & 3 & 4 &   1 & 2 & 3 & 4 & 1 & 2 & 3 & 4 & 
|---------------------------------|---------------------------------|
|---3-----3---------3-------------|-3-----3-------------------------|
|---2-----2---------2-------------|-2-----2-------------------------|
|---0-2---0-2-------0-2---5---5-2-|-0-2---0---2---5---2-------------|
|-----2-----2---------2---5---5-0-|---2-------2---5---2-------------|
|-----0-----0---------0---3---3---|---0-------0---3---0-------------|



  1 & 2 & 3 & 4 & 1 & 2 & 3 & 4 &   1 & 2 & 3 & 4 & 1 & 2 & 3 & 4 & 
|---------------------------------|---------------------------------|
|---------------------------------|---------------6-----------------|
|---5-7---5-7-------5-7---5---5-7-|-5-7---5---7---5---7-----5---5-7-|
|---5-7---5-7-------5-7---3---3-5-|-5-7---5---7---3---7-----3---3-5-|
|---3-5---3-5-------3-5-----------|-3-5---3---5-------5-------------|
|---------------------------------|---------------------------------|



|---------------------------------|---------------------------------|
|---------------------------------|---------------------------------|
|---------------------------------|---------------------------------|
|-2-------------------------------|----feedback---------------------|
|-2-------------------------------|---------------------------------|
|-0-------------------------------|---------------------------------|



 "Bite it..."  "Bite it..."        "Bite it..."  "Never let it go..."
|---------------------------------|---------------------------------|
|---------------------------------|---------------------------------|
|-2-------------4-----------------|---------------2-----------------|
|-2-------------4-----------------|-5-------------2-----------------|
|-0-------------2-----------------|-5-------------0-----------------|
|---------------------------------|-3-------------------------------|


 Chorus (modulated major second up)
|---------------------------------|---------------------------------|
|---------------------------------|---------------------------------|
|-4-4-----4-4---4---4-----2-2-----|---------------2---2-----4-4-----|
|-4-4-----4-4---4---4-----2-2---5-|---5-----5-5---2---2-----4-4-----|
|-2-2-----2-2---2---2-----0-0---5-|---5-----5-5---0---0-----2-2-----|
|-------------------------------3-|---3-----3-3---------------------|


|---------------------------------|---------------------------------|
|---------------------------------|---------------------------------|
|-4-4-----4-4---4---4-----2-2-----|---------------2---2-------------|
|-4-4-----4-4---4---4-----2-2---5-|---5-----5-5---2---2-----5-------|
|-2-2-----2-2---2---2-----0-0---5-|---5-----5-5---0---0-----5-------|
|-------------------------------3-|---3-----3-3-------------3-------|
                                                            hold

                          "Bite!"
|---------------------------------|
|---------------------------------|
|-------------------------4--\----|
|---------------2-0h2p0---4--\----|
|----------------------0--2--\----|
|---------------------------------|

End.
Добавлено: 17.07.2013
Другие материалы по этой песне:
  • Аккорды и текст

Страница создана 22.02.2012
http://primanota.ru/lordi/bite-it-like-a-bulldog-chords.htm
Привет, Гость.
Предлагаем пройти революционный курс по гитаре.
Подарок от PrimaNota.Ru, забирай!