PrimaNota.ru - самый крупный в мире бесплатный архив песенных текстов, аккордов, табулатур и нот


Lord Huron - Hurricane Johnnies Theme - таба, видео

Регистрация Запомнить меня
Войти через:  Facebook Google Twitter Vk Yandex Mail.ru

Lord Huron - Hurricane Johnnies Theme - таба, видео

Печатать
Просмотров: 66
Авторы: Ben Schneider

Hurricane by Lord Huron
Standard tuning

I've tabbed this song purely just by listening and matching the notes, so while there might be errors,
I think it sounds pretty spot on.

Intro:
e|---------------------------------------------------------|
B|---------------------------------------------------------|
G|--4-----------4-------------------4----------------------| x6
D|----5-5-55555---5--5--5---5-----7---7-5--555-------------|
A|--------------------7---5--------------------------------|
E|---------------------------------------------------------|

Bridge:
e|--10-10-10--8-10-8-7--77-----7-7------------7------------|
B|-------------------------10------10-8--8-10---10--8-8----|
G|---------------------------------------------------------| x2
D|---------------------------------------------------------|
A|---------------------------------------------------------|
E|---------------------------------------------------------|


Intro x4

Chorus (I'm not sure what note it is, but I'm pretty sure they just strum that same note throughout)

Intro x4

Chorus
Добавлено: 22.04.2016
Другие материалы по этой песне:
  • Аккорды и текст

Страница создана 22.04.2016
http://primanota.ru/lord-huron/hurricane-johnnies-theme-chords.htm
Привет, Гость.
Предлагаем пройти революционный курс по гитаре.
Подарок от PrimaNota.Ru, забирай!