PrimaNota.ru - самый крупный в мире бесплатный архив песенных текстов, аккордов, табулатур и нот


Lord Gore - Rape Camp - текст песни, таба, видео

Регистрация Запомнить меня
Войти через:  Facebook Google Twitter Vk Yandex Mail.ru

Lord Gore - Rape Camp - текст песни, таба, видео

Печатать
Просмотров: 164
Lord Gore - Rape Camp

Contact : xlos_crudos4x@yahoo.com

If I can remember correctly the tuning is 2.5 steps down..pretty low

riff 1
|------------------|
|------------------|
|------------------|
|-----4-------5----|
|-2-2-2-5-4-4-3-5--|
|-0-0---3-2-2---3--|
  . . 


riff 2
|------------------------------|
|------------------------------|
|------------------------------|
|----------------------4-------|
|-2----5----4-----2----2----4--|
|-0----3----2-----0---------2--|



riff 3
|-------------------------------------------------|
|-------------------------------------------------|
|-------------------------------------------------|
|-------------------------------------------------|
|-------------------------------------------------|
|-0"-----3"---0"-----3"---0"-----3"---1"-----4"---|



riff 4
|--------------------------------------------------------|
|--------------------------------------------------------|
|--------------------------------------------------------|
|--------------------------------------------------------|
|-2-2--2-2-2-5--2-2--2-2-2-5--2-2--2-2-2-5--3-3--3-3-3-6-|
|-0-0--0-0-0-3--0-0--0-0-0-3--0-0--0-0-0-3--1-1--1-1-1-4-|
  .             .             .             .

riff 3 behind solo with slight variations (pinch harmonics)




 end with
|----------|
|----------|
|----------|
|----------|
|-6-6-6--2-|
|-4-4-4--0-|
Добавлено: 03.06.2012
Другие материалы по этой песне:
  • Аккорды и текст

Страница создана 18.04.2012
http://primanota.ru/lord-gore/rape-camp-chords.htm
Привет, Гость.
Предлагаем пройти революционный курс по гитаре.
Подарок от PrimaNota.Ru, забирай!