PrimaNota.ru - самый крупный в мире бесплатный архив песенных текстов, аккордов, табулатур и нот


Lord Gore - Morgue Whore - текст песни, таба, видео

Регистрация Запомнить меня
Войти через:  Facebook Google Twitter Vk Yandex Mail.ru

Lord Gore - Morgue Whore - текст песни, таба, видео

Печатать
Просмотров: 101
I'm not sure what Lord Gore tunes to, but I put this in Drop B. It sounds pretty 
Send feedback to: petrified_remains356@yahoo.com or www.myspace.com/joemamaloos

INTRO:
C#|------------------------|------------------------------|
G#|-----------(x6)---------|--------------(x2)------------|
E-|------------------------|------------------------------|
B-|------------------------|------------------------------|
F#|-----5-11-5-------5-11"-|------5"-11"-5"--------5"-11"-|
B-|-0-6--------6-0-6-------|-0"-6"---------6"-0"-6"-------|

C#|-------------------------|
G#|-------------------------|
E-|-------------------------|
B-|-0-1-3-4-3-1-0-8-1-9-8-7-|
F#|-0-1-3-4-3-1-0-8-1-9-8-7-|
B-|-0-1-3-4-3-1-0-8-1-9-8-7-|


-------------------------------------------------------------|
-------------------------------------------------------------|
-------------------------------------------------------------|
-0-1-3-4-3-1-0-8-1-------------------------------------------|
-0-1-3-4-3-1-0-8-1-------------------------------------------|
-0-1-3-4-3-1-0-8-1-9p6h9p6h9p6h9-8p5h8p5h8p5p8-7p4h7p4h7p4h7-|
 . . . . . . . . .

C#|-------------------------|
G#|---*Strum each 8 times*--|
E-|-------------------------|
B-|-0-1-3-4-3-1-0-8-1-9-8-7-|
F#|-0-1-3-4-3-1-0-8-1-9-8-7-|
B-|-0-1-3-4-3-1-0-8-1-9-8-7-|
    . . . . . . . . . . . .

----------------------------------------------------------------|
*Strum each 8 times*--------------------------------------------|
----------------------------------------------------------------|
-0-1-3-4-3-1-0-8-1----------------------------------------------|
-0-1-3-4-3-1-0-8-1----------------------------------------------|
-0-1-3-4-3-1-0-8-1----9p6h9p6h9p6h9-8p5h8p5h8p5p8-7p4h7p4h7p4h7-|
 . . . . . . . . .

C#|--------------------------|-------------------------|
G#|-----------(x10)----------|-----------(x4)----------|
E-|--------------------------|-------------------------|
B-|-0-00-6-3-33-3-2-22-2-1-8-|-------------------------|
F#|-0-00-6-3-33-3-2-22-2-1-8-|-------------------------|
B-|-0-00-6-3-33-3-2-22-2-1-8-|-0"-3"-2"-3"-1"-3"-0"-8"-|
      ..     ..     ..

C#|--------------------------|-------------------------|
G#|-----------(x4)-----------|-----------(x4)----------|
E-|--------------------------|-------------------------|
B-|-0-00-6-3-33-3-2-22-2-1-8-|-------------------------|
F#|-0-00-6-3-33-3-2-22-2-1-8-|-------------------------|
B-|-0-00-6-3-33-3-2-22-2-1-8-|-0"-3"-2"-3"-1"-3"-0"-8"-|
      ..     ..     ..

C#|--------------------------|
G#|-----------(x4)-----------|
E-|--------------------------|
B-|-0-00-6-3-33-3-2-22-2-1-8-|
F#|-0-00-6-3-33-3-2-22-2-1-8-|
B-|-0-00-6-3-33-3-2-22-2-1-8-|
      ..     ..     ..

**Grunts/Moans**

   3:22
C#|-----------------------------|-------------------------|
G#|-------------(x2)------------|-------------------------|
E-|-----------------------------|-------------------------|
B-|-12/-0-1-3-4-3-1-0-8-1-9-8-7-|-0-1-3-4-3-1-0-8-1-9-8-7-|
F#|-12/-0-1-3-4-3-1-0-8-1-9-8-7-|-0-1-3-4-3-1-0-8-1-9-8-7-|
B-|-12/-0-1-3-4-3-1-0-8-1-9-8-7-|-0-1-3-4-3-1-0-8-1-9-8-7-|


C#|-------------------------|---------------------------------------------|
G#|---*Strum each 8 times*--|---------------------------------------------|
E-|-----------(x2)----------|---------------------------------------------|
B-|-0-1-3-4-3-1-0-8-1-9-8-7-|-------------------------------------------0-|
F#|-0-1-3-4-3-1-0-8-1-9-8-7-|-------------------------------------------0-|
B-|-0-1-3-4-3-1-0-8-1-9-8-7-|-9p6h9p6h9p6h9-8p5h8p5h8p5p8-7p4h7p4h7p4h7-0-|
    . . . . . . . . . . . .

-----------------|
 Tab Legend:     |
. = Palm Mute    |
/ = Slide Up     |
" = Tremelo Pick |
------------------
Добавлено: 03.06.2012
Другие материалы по этой песне:

Страница создана 01.03.2012
http://primanota.ru/lord-gore/morgue-whore-chords.htm
Привет, Гость.
Предлагаем пройти революционный курс по гитаре.
Подарок от PrimaNota.Ru, забирай!