PrimaNota.ru - самый крупный в мире бесплатный архив песенных текстов, аккордов, табулатур и нот


Lord Gore - Last Supper - таба, видео

Регистрация Запомнить меня
Войти через:  Facebook Google Twitter Vk Yandex Mail.ru

Lord Gore - Last Supper - таба, видео

Печатать
Просмотров: 127
Уроки эстрадного вокала в Санкт-Петербурге
Band:  Lord Gore
Album: Autophagous orgy
Song:  The last supper(the autophagous)

Copyright (c)  Razorbackrecords 2002
Version 1.0 - 9/26/05

Transcribed By: Jorge(Haemorrhage)
Email:          xlos_crudos4x@yahoo.com


.  - palm mute           /  - slide up to
\  - slide down to       ~  - vibrato
h  - hammer on           b  - Bend
p  - pull off            Suffixes for bend
t  - tap                 f  - full bend    h - half bend
ph - pinched harmonic    q  - quarter bend t - tap bend
*  - see comment         ^  - Hold bend    r release bend
x  - Stuccatto           ~  - vibrato bend
,  - slight palm mute    () - ghost note, sustained note
"  - tremolo note        <> - Trill

Tuning B

Riff 1
Left speaker
|----------------------------------------------------|
|----------------------------------------------------|
|----------------------------------------------------|
|----9--8~---------8--7tr8-----9--8~-----------------|
|-7--------10-9-6-----------7--------10-9-6--9--5tr6-|
|----------------------------------------------------|

Right speaker
|----------------------------------------------------|
|----------------------------------------------------|
|----9--8~---------8--7tr8-----9--8~-----------------|
|-7--------10-9-6-----------7--------10-9-6--9--5tr6-|
|----------------------------------------------------|
|----------------------------------------------------|


Riff 2     Very small variation with P.M. on the 4's second time
|------------------------------------------------------------------------------|
|------------------------------------------------------------------------------|
|------------------------------------------------------------------------------|
|------------------------------------------------------------------------------|
|----2-1--1-1-1--1-1------5-4--4-4-4--4-4-----2-1--1-1-1--1-1------------------|
|0-0------------------3-0-----------------0-0-----------------3-2-5-1--1-1-1phb|
          . .    . .           . .    . .          . .    . .          . .

Riff behind solo = Riff 2

Riff 3
|--------------------------------|
|--------------------------------|
|--------------------------------|
|--------------------------------|
|--------------------------------|
|-3~--4~--3~--4~--4~--5-~-4~--5~-|<---All tremelo picked


|--------------------------------|
|--------------------------------|
|-12~13~--12~13~--13~14~--13~14~-|
|--------------------------------|
|--------------------------------|
|--------------------------------|


Riff 4
|------------------------|
|------------------------|
|------------------------|
|-------4--3-------------|
|-5--4--2--1--5--4--7--3-|palm muted and tremelo picked also
|-3--2--------3--2--5--1-|
Добавлено: 20.05.2012
Другие материалы по этой песне:

Страница создана 20.05.2012
http://primanota.ru/lord-gore/last-supper-chords.htm
Привет, Гость.
Предлагаем пройти революционный курс по гитаре.
Подарок от PrimaNota.Ru, забирай!