PrimaNota.ru - самый крупный в мире бесплатный архив песенных текстов, аккордов, табулатур и нот


Lord Gore - Flesh To Feed - бас-таба, видео

Регистрация Запомнить меня
Войти через:  Facebook Google Twitter Vk Yandex Mail.ru

Lord Gore - Flesh To Feed - бас-таба, видео

Печатать
Просмотров: 45
Уроки эстрадного вокала в Санкт-Петербурге
Tabbed by: 6METAL6BASSIST6
E-mail: petergriffinav@gmail.com

Tuning: AEADG

0:04

G|----------------------------------------------------------------|.
D|----------------------------------------------------------------|.
A|----------------------------------------------------------------|.
E|----------------------------------------------------------------|.
A|0-------3-------6-------7---------------------------------------|.
                                                                   .
G|----------------------------------------------------------------|.
D|----------------------------------------------------------------|.
A|----------------------------------------------------------------|.
E|----------------------------------------------------------------|.
A|0-------3-------7-------6---------------------------------------|.
                                                                   .
G|----------------------------------------------------------------|.
D|----------------------------------------------------------------|.
A|----------------------------------------------------------------|.
E|----------------------------------------------------------------|.
A|0-------3-------6-------7---------------------------------------|.
                                                                   .
G|----------------------------------------------------------------|.
D|----------------------------------------------------------------|.
A|----------------------------------------------------------------|.
E|----------------------------------------------------------------|.
A|0-------3-------7-------6---------------3-----------------------|.
                                                                   . x2
G|----------------------------------------------------------------|.
D|----------------------------------------------------------------|.
A|----------------------------------------------------------------|.
E|----------------------------------------------------------------|.
A|0-------3-------6-------7---------------------------------------|.
                                                                   .
G|----------------------------------------------------------------|.
D|----------------------------------------------------------------|.
A|----------------------------------------------------------------|.
E|----------------------------------------------------------------|.
A|0-------3-------7-------6---------------------------------------|.
                                                                   .
G|----------------------------------------------------------------|.
D|----------------------------------------------------------------|.
A|----------------------------------------------------------------|.
E|----------------------------------------------------------------|.
A|0-------3-------6-------7---------------------------------------|.
                                                                   .
G|----------------------------------------------------------------|.
D|----------------------------------------------------------------|.
A|----------------------------------------------------------------|.
E|----------------------------------------------------------------|.
A|0-------3-------7-------6---------------3---------------5-------|.

0:44

G|----------------------------------------------------------------|.
D|----------------------------------------------------------------|.
A|----------------------------------------------------------------|.
E|----------------------------------------------------------------|.
A|0---0---0---0---0---0---0---0---0---0---0---0---0---0---0---0---|.
                                                                   .
G|----------------------------------------------------------------|.
D|----------------------------------------------------------------|.
A|----------------------------------------------------------------|.
E|------------------------------------------------2---------------|.
A|0---1-------0---1-------0---0---0---1-------0-----------3-------|.
                                                                   . x2
G|----------------------------------------------------------------|.
D|----------------------------------------------------------------|.
A|----------------------------------------------------------------|.
E|----------------------------------------------------------------|.
A|0---0---0---0---0---0---0---0---0---0---0---0---0---0---0---0---|.
                                                                   .
G|----------------------------------------------------------------|.
D|----------------------------------------------------------------|.
A|----------------------------------------------------------------|.
E|----------------------------------------------------------------|.
A|0---1-------0---1-------0---0---0---1-------0---4-------3-------|.

1:05

G|----------------------------------------------------------------|
D|----------------------------------------------------------------|
A|----------------------------------------------------------------| x4
E|----------------2-----------------------------------------------|
A|0---1-------0-----------3-------0---1-------0---4-------3-------|
Добавлено: 04.09.2015
Другие материалы по этой песне:
  • Аккорды и текст

Страница создана 04.09.2015
http://primanota.ru/lord-gore/flesh-to-feed-chords.htm
Привет, Гость.
Предлагаем пройти революционный курс по гитаре.
Подарок от PrimaNota.Ru, забирай!